Oops, an error
Loading. Please wait.

Dont Be So Hard tab

version 1
version 1

Whole song

Interactive

31,759 views 6 this week
7 commentsread comments
1 2 3 4 5
x 13
add to favorites
×
Save as Personal and add changes to this tab that will be seen only by you. Learn more ›
×
You can save this tab as Personal to edit and correct it or add notes. All changes will be seen only by you. Learn more »
launch autoscroll
font size
0
reset
how to read this tab
guitar tuner
edit
Autoscroll
slow
fast
+/-
esc
set tempo
stop
Author
intro:

Eb|----5p2-2---2---5p2---------5p2---0p2---0p2-0p2--7p5---|
Bb|--3------3---3-------3---3-----------------------------|
Gb|-0-0---0---0---0---0-----------------------------------|
Db|-----------------------0---0----0----0-----0-----------|  x2
Ab|-------------------------------------------------------|
Db|-------------------------------------------------------|

the whole rest of the song is pretty much this:

Eb|-----X------------X---------------X-----------------|
Bb|-----8------------3---------------5-----------------|
Gb|-----7------------2---------------4-----------------|
Db|-----5------------0---------------2-----------------|
Ab|-----5--(x16)-----0--(x8)---------2--(x8)-----------|
Db|-----5------------0---------------2-----------------|

(Thankyou Flinch08 for the corrections!!) 

listen to it for the strum pattern and palm mutes in the second verse. pretty easy :]

            
            
Suggest correction
Creating personal tab
Creating personal tab
You can edit any tab online and save it as your Personal.

You can edit, replace or remove any tab part or add personal notes – all changes will be seen only by you.

Personal tabs can be accessed anytime from any device, even offline.
Learn more »
comments
print report bad tab
7 comments total. Showing first comments.
0 reply
flinch08 50 May 26, 2007 01:49 PM

the rest of the song goes like this..

Eb|-------------------------------------------------------|
Bb|-----8------------3---------------5--------------------|
Gb|-----7------------2---------------4--------------------|
Db|-----5------------0---------------2--------------------|
Ab|-----5--(x16)-----0--(x8)---------2--(x8)--------------|
Db|-----5------------0---------------2--------------------|

sounds better that way...

+1 reply
peita 10 Jun 19, 2007 05:42 PM

i was thinking the beginning was different too, i play it up on the 5th fret.. do you know what the interlude is between the first choruse & 2nd verse (i think thats where it lies.. its another picking part)

Eb|------5-----------5----------5------------------------------7\5--
Bb|-------7--7---7----7----------7----8/10---8/10----8/10-----7\5--
Gb|---7----7--7---7------7--7---------9/11---9/11----9/11----------
Db|--5-5-------5---5---5----------0--------0-------0------0--------
Ab|------------------------5--5-------------------------------------
Db|-----------------------------------------------------------------

anyways..

0 reply
Painsaw 10 Jun 30, 2007 04:12 AM

...i like peita's version..but the last slide coud be easier like:

--------------
-8/10-12p10---
-9/11-11------
-------0------
--------------

s.t. like this..

guest
You may want to rate the tab now too:
select rating
Wanna post a correction for this tab? Suggest correction