Oops, an error
Loading. Please wait.

Make It Rain tab

3,074 views 3 this week
no commentswrite comment
1 2 3 4 5
x 4
add to favorites
×
Save as Personal and add changes to this tab that will be seen only by you. Learn more ›
×
You can save this tab as Personal to edit and correct it or add notes. All changes will be seen only by you. Learn more »
launch autoscroll
font size
0
reset
how to read this tab
guitar tuner
edit
Autoscroll
slow
fast
+/-
esc
set tempo
stop
Author
This is a great song and there were no tabs so i had to figure it out myself. i'm
pretty sure this is very close to perfect.

intro

Guitar 1

e----------6-8--6------------|
b-8------8----8--------------|
g-8-----8----------8---------|  x2
d-8----8---------------------|
a-6--------------------------|
e----------------------------|

verse


Guitar 1

e----------6-8--6------------|
b-8------8----8--------------|
g-8-----8----------8---------|  x4
d-8----8---------------------|
a-6--------------------------|
e----------------------------|

guitar 2

e-3-3--3-3--3-3-3-3-3-3-3--|
b-4-4--4-4--4-4-4-4-4-4-4--|
g--------------------------|  x4
d--------------------------|
a--------------------------|
e--------------------------|


pre-chorus 1

guitar 1

e--3----4----8-------3----4----8--------------|
b--4----4----9-------4----4----9--------------|
g--5----5----10------5----5----10-------7-----|
d---------------------------------------7-x8--|
a---------------------------------------5-----|
e---------------------------------------------|


chorus (both guitars)

e----------------------------------------------------------------------|
b---------------------------------------------------------9------------|
g-------------5------------------5------------------3-----10-----------|
d-6-----5-----5-x16--6-----5-----5-x16--6-----5-----3-x8--10-x8--------|
a-6-x8--5-x8--3------6-x8--5-x8--3------6-x8--5-x8--1-----8------------|
e-4-----3------------4-----3------------4-----3------------------------|

e----------------------|
b----------------------|
g-------------5----5---|
d-6-----5-----5-x8-5---|
a-6-x8--5-x8--3----3---|
e-4-----3--------------|

repeat verse


prechorus 2

guitar 1

e--3----4----8-------3----4----8--------------|
b--4----4----9-------4----4----9--------------|
g--5----5----10------5----5----10-------7-----|
d---------------------------------------7-x8--|
a---------------------------------------5-----|
e---------------------------------------------|

guitar 2 (all muted except for last chord)

e-----------------------------------------|
b-----------------------------------------|
g------------------------------------7----|
d--10-----8-----10-----13-----15-----7-x8-|
a--10-x30-8-x2--10-x8--13-x8--15-x8--5----|
e--8------6-----8------11-----13----------|


repeat chorus

bridge

guitar 1

e----------------------------|
b----------------------------|
g-----------------------8----|
d-----------------------8----|
a-----------------------6----|
e-6h8p6h8p6h8p6h8p6h8p6------|


then both guitars

e------------------------------------------------------|
b------------------------------------------------------|
g-------------8-8-10-12----------8-8-10-12-------------|
d-10-10-8-10--8-8-10-12--8-10-8--8-8-10-12--6-----5----| repeat 4x
a-10-10-8-10--6-6-8--10--8-10-8--6-6-8--10--6-x8--5-x8-|
e-8--8--6-8--------------6-8--6-------------4-----3----|


end with guitar 1 hammering on the 15th and 17th frets on the g string


final chorus


guitar 2

e----------------------------------------------------------------------|
b---------------------------------------------------------9------------|
g-------------5------------------5------------------3-----10-----------|
d-6-----5-----5-x16--6-----5-----5-x16--6-----5-----3-x8--10-x8--------|
a-6-x8--5-x8--3------6-x8--5-x8--3------6-x8--5-x8--1-----8------------|
e-4-----3------------4-----3------------4-----3------------------------|

e----------------------|
b----------------------|
g-------------5----5---|
d-6-----5-----5-x8-5---|
a-6-x8--5-x8--3----3---|
e-4-----3--------------|


guitar 1

e---------------------------------15---------|
b---------------------------16-18---18-16----|
g-17-15-17-15-17-15-------17--------------17-|
d-------------------17-15--------------------|
a--------------------------------------------|
e--------------------------------------------|

e---------------------------------15---------|
b---------------------------16-18---18-16----|
g-17-15-17-15-17-15-------17--------------17-|
d-------------------17-15--------------------|
a--------------------------------------------|
e--------------------------------------------|

e---------------------------------15---------|
b---------------------------16-18---18-16----|
g-17-15-17-15-17-15-------17--------------17-|
d-------------------17-15--------------------|
a--------------------------------------------|
e--------------------------------------------|

e--------------------------------------|
b-18-16----18-16----18-16----18-16-----|
g-------17-------17-------17-------17--|
d--------------------------------------|
a--------------------------------------|
e--------------------------------------|

e---------------------------------15---------|
b---------------------------16-18---18-16----|
g-17-15-17-15-17-15-------17--------------17-|
d-------------------17-15--------------------|
a--------------------------------------------|
e--------------------------------------------|

e---------------------------------15---------|
b---------------------------16-18---18-16----|
g-17-15-17-15-17-15-------17--------------17-|
d-------------------17-15--------------------|
a--------------------------------------------|
e--------------------------------------------|

end with guitar one

e--------------------|
b--------------------|
g-15b17--17b20--17---|
d--------------------|
a--------------------|
e--------------------|

            
            
Suggest correction
Creating personal tab
Creating personal tab
You can edit any tab online and save it as your Personal.

You can edit, replace or remove any tab part or add personal notes – all changes will be seen only by you.

Personal tabs can be accessed anytime from any device, even offline.
Learn more »
comments
print report bad tab
guest
You may want to rate the tab now too:
select rating
Wanna post a correction for this tab? Suggest correction