Oops, an error
Loading. Please wait.

By My Side bass

version 1
version 1

Whole song

Interactive

490 views 1 this week
2 commentsread comments
1 2 3 4 5
2 more votes to show rating
add to favorites
×
Save as Personal and add changes to this tab that will be seen only by you. Learn more ›
×
You can save this tab as Personal to edit and correct it or add notes. All changes will be seen only by you. Learn more »
launch autoscroll
font size
0
reset
guitar tuner
edit
Autoscroll
slow
fast
+/-
esc
set tempo
stop
Difficulty
The Automatic
Not Accepted Anywhere
By My Side

This is my first tab, but sounds ok, room for improvement but not bad XD


Intro
G|----------------------------------------------|
D|----3-----------------3-----------------------|
A|0000--2222--0000--2222--0000--2222--0000--22~~|
E|----------------------------------------------|

Verse
"What did i find in my head..."
G|--------------------------------------------------------------------------------|
D|--------------------------------------------------------------------------------|
A|--------------------------------------------------------------------------------|
E|55555555555555557777777777777777555555555555555577777777777777779999999999999999|

Chorus
"Is this the end of the world..."
G|---------------------------------------------------|
D|---------------------------------------------------|
A|0-00000333333------------0-00000333333-------------|
E|-------------333333111111-------------333333111111-|

G|---------------------------------------------------|
D|-------------333333--------------------------------|
A|0-00000333333------5555550-00000333333-------------|
E|--------------------------------------333333111111-|

Verse 2

"but things change thing change"

G|--------------------------------------------------------------------------------|
D|--------------------------------------------------------------------------------|
A|--------------------------------------------------------------------------------|
E|55555555555555557777777777777777333333333333333377777777777777773333333333333333|

Chorus
"Is this the end of the world..."
G|---------------------------------------------------|
D|---------------------------------------------------|
A|0-00000333333------------0-00000333333-------------|
E|-------------333333111111-------------333333111111-|

G|---------------------------------------------------|
D|-------------333333--------------------------------|
A|0-00000333333------5555550-00000333333-------------|
E|--------------------------------------333333111111-|

Bridge

G|----------------------------------------------------------------|
D|----------------------------------------------------------------|
A|----------------------------------------------------------------|
E|5-5-7-775-5-7-775-5-7-775-5-7-775-5-7-775-5-7-775-5-7-775-5-7-77|

G|----------------------------------------------------------------|
D|----------------------------------------------------------------|
A|----------------------------------------------------------------|
E|5-5-7-775-5-7-775-5-7-775-5-7-775-5-7-775-5-7-775-5-7-775-5-7-77|


End Chorus
"Is this the end of the world..."
G|---------------------------------------------------|
D|---------------------------------------------------|
A|0-00000333333------------0-00000333333-------------|
E|-------------333333111111-------------333333111111-|

G|---------------------------------------------------|
D|-------------333333--------------------------------|
A|0-00000333333------5555550-00000333333-------------|
E|--------------------------------------333333111111-|

Ending

G|--------|
D|--------|
A|22-22---|
E|--------|

            
            
Suggest correction
Creating personal tab
Creating personal tab
You can edit any tab online and save it as your Personal.

You can edit, replace or remove any tab part or add personal notes – all changes will be seen only by you.

Personal tabs can be accessed anytime from any device, even offline.
Learn more »
Give kudos to tab author, rate the tab!
1 2 3 4 5
comments
print report bad tab
2 comments total.
0 reply
petewentzboy 165 Jan 02, 2008 03:26 AM

this song is tuned half a semitone down with the Eb all the way down to a Db

0 reply
Overdrive_mania 73 May 04, 2008 04:52 AM

Nah it's not tuned half a semi-tone down cos why be able to play all of their songs with standard tuning then tune it down abit for this one specially?

The tab isn't bad but quite a feew things don't fit like the intro and the verse and the chorus...pretty much most of it so improve cos this is a great song.

guest
Wanna post a correction for this tab? Suggest correction