Oops, an error
Loading. Please wait.

Raoul bass

version 1
version 1

Whole song

Interactive

1,137 views 1 this week
2 commentsread comments
1 2 3 4 5
1 last vote to show rating
add to favorites
×
Save as Personal and add changes to this tab that will be seen only by you. Learn more ›
×
You can save this tab as Personal to edit and correct it or add notes. All changes will be seen only by you. Learn more »
launch autoscroll
font size
0
reset
guitar tuner
edit
Autoscroll
slow
fast
+/-
esc
set tempo
stop
Raoul bass tab - by the Automatic
Transcribed by Paul Cox

I've a feeling the guitars and bass are tuned down half a step.

This song is a peice of piss to play but quite fun at the same time.

Intro

----------------------------------------------|
----------------------------------------------|
---0-0--0---0-0--0---3-3--3---3-3--3--5-5-----| play this however many times
----------------------------------------------|


----------------------------------------------|
----------------------------------------------|
---0-0--0---0-0--0---3-3--3---3-3-3-3-3-3-3-3-|
----------------------------------------------|

Chorus

----------------------------------------------|
----------------------------------------------|
------------0h3h5-----------0h3h5-------------|
--3-3-3-3-3-------3-3-3-3-3-------------------|


----------------------------------------------|
----------------------------------------------|
----------------------------------------------|
--0-0-0-0-0-7-7h10--0-0-0-0-0-7-7h10----------|

the above is practically the whole song apart from:

'Let's go see Raoul...'

----------------------------------------------|
----------------------------------------------|
-0-0-0-0-0-0-0---0-5-3-3-3-3-3-5-5-5-5--------|
---------------3------------------------------|

there is another variation of the above which ends on C before going back to the chorus.

That's all - I know the rythmn isn't spot on but you're dumb if you can't work it out 
yourself from this...

            
            
Suggest correction
Creating personal tab
Creating personal tab
You can edit any tab online and save it as your Personal.

You can edit, replace or remove any tab part or add personal notes – all changes will be seen only by you.

Personal tabs can be accessed anytime from any device, even offline.
Learn more »
Give kudos to tab author, rate the tab!
1 2 3 4 5
comments
print report bad tab
2 comments total.
0 reply
petewentzboy 165 Jul 28, 2007 07:11 AM

you would be right about the tuning; it is why all the other tabs are completely wrong

0 reply
petewentzboy 165 Jul 28, 2007 07:14 AM

o ye, and the bridge bit is:

Gb----------------------------------------------------------
Db---------------------------------------------------------
Ab--------------------------5--3--3--3--3--3--3--3-----------
Eb--5--5--5--5--5--5--5-3-5------------------------0-3--------

guest
You may want to rate the tab now too:
select rating
Wanna post a correction for this tab? Suggest correction