Oops, an error
Loading. Please wait.
We have an official Recover tab made by UG professional guitarists. Check out the tab »
×
2,972 views 1 this week
4 commentsread comments
1 2 3 4 5
x 10
add to favorites
×
Save as Personal and add changes to this tab that will be seen only by you. Learn more ›
×
You can save this tab as Personal to edit and correct it or add notes. All changes will be seen only by you. Learn more »
launch autoscroll
font size
0
reset
how to read this tab
guitar tuner
edit
Autoscroll
slow
fast
+/-
esc
set tempo
stop
Author
Difficulty
Tabbed by:WHY_YOU_ASKING
Email: why_you_asking@hotmail.com

Tuning:E.A.D.G.B.E (standard)

INTRO (Listen to the song for rythym)

e|----------------------------------------------------------------------|
B|----------------------------------------------------------------------|
G|---------------------------5--4--5---------------------------5--4--5--|
D|--------7----5--7---5--7-------------5--7----5--7------5--7-----------|
A|----------------------------------------------------------------------|
E|----------------------------------------------------------------------|
Repeats through verse and bass plays the same (octave lower) until it plays:
Off beat, untill chorus

G|--------------------------------------------------------|
D|--------7--7--7--7--7--7--5--5--7--7--7--7--7--7--5--5--|
A|--------------------------------------------------------|
E|--------------------------------------------------------|

Then Chorus:

e|------------------------------------------------------|
B|------------------------------------------------------|
G|------------------------------------------------------|
D|----3-------------------2-----------------7-----------|
A|----3------(x8)---------2------(X3)-------7-----(X5)--|
E|----1-------------------0-----------------5-----------|

Bridge
e|------------------------------------------------|
B|------------------------------------------------|
G|------------------------------------------------|
D|------10-----------------12------------9--------|
A|------10--------(X8)-----12---(X3)-----9--(X5)--|
E|-------8-----------------10------------7--------|

2 Bars rest then repeat (X4)


Last Chorus


e|-------------------------------------------------------------------------------------------------|
B|-------------------------------------------------------------------------------------------------|
G|-------------------------------------------------------------------------------------------------|
D|----3--3--3--3--3--3--3--3--5--5--5--7--7--7--7------3--3--3--3--3--3--3--3-5--5--5--7--7--7--7--|
A|-------------------------------------------------------------------------------------------------|
E|-------------------------------------------------------------------------------------------------|

Outro
e|----------------------------------------------------|
B|----------------10-------------10~------------------|
G|----------------------------------------------------|
D|----------7---------7--7--7-------------(end on) 7--|
A|----------------------------------------------------|
E|----------------------------------------------------|

This is an amazing song i think, and i  cant wait till they release a new song!

The Automatic Official Website :  www.theautomatic.co.uk

            
            
Suggest correction
Creating personal tab
Creating personal tab
You can edit any tab online and save it as your Personal.

You can edit, replace or remove any tab part or add personal notes – all changes will be seen only by you.

Personal tabs can be accessed anytime from any device, even offline.
Learn more »
comments
print report bad tab
4 comments total. Showing first comments.
0 reply
lemon916 10 Jan 06, 2007 08:10 AM

i think that they are hammer-ons in the intro but it dosent make much difference.

0 reply
falloutgirl_17 10 Jan 25, 2007 10:36 AM

good tab hun x

+1 reply
petewentzboy 165 Jul 28, 2007 07:22 AM

good tab, two things: lemon, they definitely arent hammer-downs, and, confusingly, in the chorus it goes:

e|-------------------------------------
B|-----------------------------------------
G|--10----9-----------------------------------
D|--10-x8-9-x3-7--------------------------------- x4
A|--8-----7----7-x5----3--x8----2--x3----7-x5---------
E|--------------5------1---------0--------5------

you were right but it is an octave higher first time round

guest
You may want to rate the tab now too:
select rating
Wanna post a correction for this tab? Suggest correction