Oops, an error
Loading. Please wait.

Laundry Room chords

version 2
version 2

Whole song

91,664 views 333 this week
8 commentsread comments
1 2 3 4 5
x 135
add to favorites
×
Save as Personal and add changes to this tab that will be seen only by you. Learn more ›
×
You can save this tab as Personal to edit and correct it or add notes. All changes will be seen only by you. Learn more »
launch autoscroll
font size
0
reset
transpose
0
reset
simplify chords
display chords
guitar tuner
edit
Autoscroll
slow
fast
+/-
esc
set tempo
stop
Strumming
There is no strumming pattern for this song yet. and get +5 IQ
I created these chords, because I really love this song and the chords that are on
Ultimate-Guitar so far, are in my opinion a bit too much simplified and don't really honor
this great song. This is still way more simplified than the original, but it gets pretty 
far with one guitar.
Try fiddling around with some transfers, e.g.
0-2-3 on the E-String before playing the G-Chord at the beginning of a line,
0-2-3 on the A-String before playing the C-Chord at the beginning of a line,
that really fires up the whole song :)

CAPO on 4th


[Intro]  

                       G
e|--------------------------------|
B|------------------------------0-|
G|----------0---2---0-------0-----|
D|--0---2---------------2---------|
A|--------------------------------|
E|3---3---3---3---3---3---3---3---|

e|------------------------------------|
B|----------------------------------0-|
G|--------------0---2---0-------0-----|
D|------0---2---------------2---------|
A|------------------------------------|
E|0-2-3---3---3---3---3---3---3---3---|


Chords:
Gsus4: 320013
G*: 302003
Cmaj7: x32000


   G     G*     G
  Don't push me out,
G         G*     G
  Just a little longer
C
  Stall your mother,
Cmaj7                      G Gsus4 G
  Disregard your father's words.
G             G*     G
  Close the laundry door,
G           G*        G
  Tiptoe across the floor
C
  Keep your clothes on,
Cmaj7                   G Gsus4 G
  I got all that I can take
C
  Teach me how to use
Cmaj7                           G Gsus4 G
  The love that people say you made


[Interlude]  

                       G
e|--------------------------------|
B|------------------------------0-|
G|----------0---2---0-------0-----|
D|--0---2---------------2---------|
A|--------------------------------|
E|3---3---3---3---3---3---3---3---|

e|------------------------------------|
B|----------------------------------0-|
G|--------------0---2---0-------0-----|
D|------0---2---------------2---------|
A|------------------------------------|
E|0-2-3---3---3---3---3---3---3---3---|

G            G*       G
  Stop your parents' car
G         G*              G
  I just saw a shooting star
C
  We can wish upon it
Cmaj7                            G Gsus4 G
  But we wont share the wish we made
C
  But I cant keep no secrets,
Cmaj7                            G Gsus4 G
  I wish that you would always stay

G                G*                    G
  Last night I dreamt the whole night long
G                G*           G
  I woke with a head full of songs
C
  I spent the whole day
Cmaj7                           G Gsus4 G
  I wrote 'em down, but its a shame
C
  Tonight I'll burn the lyrics,
Cmaj7                           G Gsus4 G
  'Cause every chorus was your name


[Interlude]  

                       G
e|--------------------------------|
B|------------------------------0-|
G|----------0---2---0-------0-----|
D|--0---2---------------2---------|
A|--------------------------------|
E|3---3---3---3---3---3---3---3---|

e|------------------------------------|
B|----------------------------------0-|
G|--------------0---2---0-------0-----|
D|------0---2---------------2---------|
A|------------------------------------|
E|0-2-3---3---3---3---3---3---3---3---|

G             G*           G
  Break this tired old routine
G           G*                  G
  And this time don't make me leave
G          G*               G
  I am a breathing time machine,
G               G*         G
  I'll take you all for a ride

            
            
Suggest correction
Creating personal tab
Creating personal tab
You can edit any tab online and save it as your Personal.

You can edit, replace or remove any tab part or add personal notes – all changes will be seen only by you.

Personal tabs can be accessed anytime from any device, even offline.
Learn more »
comments
print report bad tab
8 comments total. Showing first comments. show 1 bad comment
0 reply
StudlyOwlMusic 10 Apr 14, 2013 07:17 PM

This is a very nice chord sheet! Thanks for uploading it! Haha

+15 reply
abbyecox 32 Nov 17, 2013 09:20 PM

This is great but it should be Capo 4!

guest
Wanna post a correction for this tab? Suggest correction