Oops, an error
Loading. Please wait.

Rock Lobster bass

version 2
version 2

Whole song

Interactive

5,367 views 15 this week
no commentswrite comment
1 2 3 4 5
1 last vote to show rating
add to favorites
×
Save as Personal and add changes to this tab that will be seen only by you. Learn more ›
×
You can save this tab as Personal to edit and correct it or add notes. All changes will be seen only by you. Learn more »
launch autoscroll
font size
0
reset
guitar tuner
edit
Autoscroll
slow
fast
+/-
esc
set tempo
stop
Author
Difficulty
ROCK LOBSTER

I put the lyrics (with time stamps) to fit in with the tab below. Hope the time stamps 
help. Play around with this tab how much you like.

0:11 - 0:22
We were at a party
His ear lobe fell in the deep
Someone reached in and grabbed it
It was a rock lobster!

0:27
Rock Lobster!!!

0:32
Rock Lobster!!!

1:05 - 1:20
We were at the beach
Everybody had matching towels
Somebody went under a dock
And there they saw a rock
It wasn't a rock
It was a rock lobster!

1:27
Rock Lobster!!!

1:30
((High Pitched)) Rock Lobster!!!


ROCK LOBSTER

   0:00 - 0:22
   0:54 - 1:20
|  |-----------------------|
|  |-----------------------|x8
|  |-----------3-0-3--2----|
|  |-0-2-3-2-0-------------|
|
|
|  0:22 - 0:43
|  1:20 - 1:42
|  |-|-----|-|-----|-|-----|-|-----|-|
|  |-|-----|-|-----|-|-----|-|-----|-|x4
|  |-|-----|-|-----|-|--3--|-|--2--|-|
|  |-|--0--|-|--3--|-|-----|-|-----|-|
|      x8      x8      x8      x8
|  0:43 - 0:49
|  1:42 - 1:47
|  |-------------------------|
|  |-------------------------|x2
|  |-------------3333--2222--|
|  |-0000--3333--------------|
|
|
|  0:49 - 0:54
|  1:47 - 1:52
|   |--------------|x2
|  |-------------------------------|
|  |-------------------------------|
|  |---------22--33--22--33--22--33|
|  |-00--33------------------------|
2x
Play all of it again!


This is the part where he says " Down, down!" Very weird part, sorry I couldn't figure it out.

            
            
Suggest correction
Creating personal tab
Creating personal tab
You can edit any tab online and save it as your Personal.

You can edit, replace or remove any tab part or add personal notes – all changes will be seen only by you.

Personal tabs can be accessed anytime from any device, even offline.
Learn more »
Give kudos to tab author, rate the tab!
1 2 3 4 5
comments
print report bad tab
guest
You may want to rate the tab now too:
select rating
Wanna post a correction for this tab? Suggest correction