Oops, an error
Loading. Please wait.

Runnin Around tab

118 views 1 this week
2 commentsread comments
1 2 3 4 5
2 more votes to show rating
add to favorites
×
Save as Personal and add changes to this tab that will be seen only by you. Learn more ›
×
You can save this tab as Personal to edit and correct it or add notes. All changes will be seen only by you. Learn more »
launch autoscroll
font size
0
reset
how to read this tab
guitar tuner
edit
Autoscroll
slow
fast
+/-
esc
set tempo
stop
The tuning on this song is CFxxFF. So the D and the G string are both removed. 
You don't neccessarily have to remove the strings but it's a lot easier to play if you do.
If you don't feel like changing gauges I recommend tuning it like this instead:
The strings may be a little loose, but it sounds good anyway in my opinion.

(From low to high)
E down to a C
A down to an F
D-string removed
G down to an F
B down to an F - )Same octave as the G-string)
E-string removed

The fingering is pretty simple, but the rhythm might be tricky to nail. 
Especially if you've never played with 4 strings before.

This song is tabbed according to the original tuning i.e. CFxxFF

[Intro]

"My baby..."
F|-----------------------------------------|
F|-----------------------------------------|
x|-----------------------------------------|
x|-----------------------------------------| x2
F|-7----7----7----7----5----5----5----5----|
C|-5----5----5----5----3----3----3----3----|

[Chorus]

"Runnin around..."
F|-------0-----------0-----------0-----0-----0~---|
F|-------0-----------0-----------0-----0-----0~---|
x|------------------------------------------------|
x|------------------------------------------------| x4
F|-7--7-----7--7--7-----7--5--5-----5-----5-------|
C|-5--5-----5--5--5-----5--3--3-----3-----3-------|

F|------------7~----------3~----------0-----0~----|
F|------------7~----------3~----------0-----0~----|
x|------------------------------------------------|
x|------------------------------------------------|
F|-9--9--9--9----9--9--9--5--5--5--5--5--5--5--5--|
C|-7--7--7--7----7--7--7--3--3--3--3--3--3--3--3--|

F|------------7~----------0~----0~----0~----0~----|
F|------------7~----------0~----0~----0~----0~----|
x|------------------------------------------------|
x|------------------------------------------------|
F|-9--9--9--9----9--9--9--5--5--5--5--5--5--5--5--|
C|-7--7--7--7----7--7--7--3--3--3--3--3--3--3--3--|

F|-5--5--5--5--5--5--5-----------------------0~---|
F|-5--5--5--5--5--5--5-----------------------0~---|
x|------------------------------------------------| x4
x|------------------------------------------------|
F|-7--7--7--7--7--7--7--7--5-----5-----5--5--5----|
C|-5--5--5--5--5--5--5--5--3-----3-----3--3--3----|


F|-7--7--7--7--7--7--7-----------------------0--0--|
F|-7--7--7--7--7--7--7-----------------------0--0--|
x|-------------------------------------------------| x2
x|-------------------------------------------------|
F|-9--9--9--9--9--9--9--9--5--5--5--5--5--5--5--5--|
C|-7--7--7--7--7--7--7--7--3--3--3--3--3--3--3--3--|

[Verse]

"In the restaurants..."
F|----------------------------------|-3~-----------|
F|----------------------------------|-3~-----------|
x|----------------------------------|--------------|
x|----------------------------------|--------------|
F|-7-----------5--7--5--7-----------|-5~-----------|
C|-5-----------3--5--3--5-----------|-3~-----------|

F|----------------------------------|-0~-----------|
F|----------------------------------|-0~-----------|
x|----------------------------------|--------------|
x|----------------------------------|--------------|
F|-7-----------5--7--5--7-----------|-5~-----------|
C|-5-----------3--5--3--5-----------|-3~-----------|

F|-----------------------------------------|
F|-----------------------------------------|
x|-----------------------------------------|
x|-----------------------------------------| x6
F|-7~------------------5~------------------|
C|-5~------------------3~------------------|

F|-----------------------------------------|
F|-----------------------------------------|
x|-----------------------------------------|
x|-----------------------------------------| x2
F|-7----7----7----7----5----5----5----5----|
C|-5----5----5----5----3----3----3----3----|

[Chorus]

"Run, run, runnin around..."
F|-------0-----------0-----------0-----0-----0~---|
F|-------0-----------0-----------0-----0-----0~---|
x|------------------------------------------------|
x|------------------------------------------------| x4
F|-7--7-----7--7--7-----7--5--5-----5-----5-------|
C|-5--5-----5--5--5-----5--3--3-----3-----3-------|

F|------------7~----------3~----------0-----0~----|
F|------------7~----------3~----------0-----0~----|
x|------------------------------------------------|
x|------------------------------------------------|
F|-9--9--9--9----9--9--9--5--5--5--5--5--5--5--5--|
C|-7--7--7--7----7--7--7--3--3--3--3--3--3--3--3--|

F|------------7~----------0~----0~----0~----0~----|
F|------------7~----------0~----0~----0~----0~----|
x|------------------------------------------------|
x|------------------------------------------------|
F|-9--9--9--9----9--9--9--5--5--5--5--5--5--5--5--|
C|-7--7--7--7----7--7--7--3--3--3--3--3--3--3--3--|

F|-5--5--5--5--5--5--5-----------------------0~---|
F|-5--5--5--5--5--5--5-----------------------0~---|
x|------------------------------------------------| x4
x|------------------------------------------------|
F|-7--7--7--7--7--7--7--7--5-----5-----5--5--5----|
C|-5--5--5--5--5--5--5--5--3-----3-----3--3--3----|


F|-7--7--7--7--7--7--7-----------------------------|
F|-7--7--7--7--7--7--7-----------------------------|
x|-------------------------------------------------|
x|-------------------------------------------------|
F|-9--9--9--9--9--9--9--9--5--5--5--5--5--5--5--5--|
C|-7--7--7--7--7--7--7--7--3--3--3--3--3--3--3--3--|

[Verse 2]

F|-----------------------------------------|
F|-----------------------------------------|
x|-----------------------------------------|
x|-----------------------------------------|
F|-9~------------------5~------------------|
C|-7~------------------3~------------------|

F|-----------------------------------------|----------------------------------------|
F|-----------------------------------------|----------------------------------------|
x|-----------------------------------------|----------------------------------------|
x|-----------------------------------------|----------------------------------------|
F|-7~-------------------------------5~-----|-7~-------------------------------------|
C|-5~-------------------------------3~-----|-5~-------------------------------------|

"You got me runnin..."
F|-------------------------------------------------|
F|-------------------------------------------------|
x|-------------------------------------------------|
x|-------------------------------------------------| x3
F|-------------------------------------------------|
C|-5--3--5--3--5--3--5--3--5--3--5--3--5--3--5--3--|

F|-------------------------------------------------|
F|-------------------------------------------------|
x|-------------------------------------------------|
x|-------------------------------------------------|
F|-------------------------------------------------|
C|-5--3--5--3--5--3--5--3--5--3--5--3--5--5--5--5--|

[Chorus]

F|-5--5--5--5--5--5--5-----------------------0~---|
F|-5--5--5--5--5--5--5-----------------------0~---|
x|------------------------------------------------| x3
x|------------------------------------------------|
F|-7--7--7--7--7--7--7--7--5-----5-----5--5--5----|
C|-5--5--5--5--5--5--5--5--3-----3-----3--3--3----|

F|-5--5--5--5--5--5--5-----------------------------|
F|-5--5--5--5--5--5--5-----------------------------|
x|-------------------------------------------------|
x|-------------------------------------------------|
F|-7--7--7--7--7--7--7--7--5-----5-----5--5--5--5--|
C|-5--5--5--5--5--5--5--5--3-----3-----3--3--3--3--|

F|-------------0-----0--------0--3~---|
F|-------------0-----0--------0--3~---|
x|------------------------------------|
x|------------------------------------|
F|-7--7--7--7------------5~-----------|
C|-5--5--5--5------------3~-----------|

F|-0--0--0--0--7~----------------------------------|
F|-0--0--0--0--7~----------------------------------|
x|-------------------------------------------------|
x|-------------------------------------------------|
F|-9--9--9--9--9-----9--9--5--5--5--5--5--5--5--5--|
C|-7--7--7--7--7-----7--7--3--3--3--3--3--3--3--3--|


F|-5--5--5--5--5----0--3~-------------------------|
F|-5--5--5--5--5----0--3~-------------------------|
x|------------------------------------------------|
x|------------------------------------------------|
F|-7--7--7--7--7----------5--5--5--5--5-----------|
C|-5--5--5--5--5----------3--3--3--3--3-----------|

F|-------------------0-----0-----0-----3-----0~-|
F|-------------------0-----0-----0-----3-----0~-|
x|----------------------------------------------| x3
x|----------------------------------------------|
F|-9--9--9--9--9--9--9--9--5--5--5--5--5--5--5--|
C|-7--7--7--7--7--7--7--7--3--3--3--3--3--3--3--|

[Outro]

F|-----------------------------------------|
F|-----------------------------------------|
x|-----------------------------------------|
x|-----------------------------------------|
F|-7~------------------5~------------------|
C|-5~------------------3~------------------|

"Runnin, runnin..."
F|-------0-----------0-----------0-----------0-----|
F|-------0-----------0-----------0-----------0-----|
x|-------------------------------------------------|
x|-------------------------------------------------|
F|-7--7-----7--7--7-----7--5--5-----5--5--5-----5--|
C|-5--5-----5--5--5-----5--3--3-----3--3--3-----3--|
                                                      ----- Repeat these two six times
F|-------0-----------0-----------0-----0-----0--0--|
F|-------0-----------0-----------0-----0-----0--0--|
x|-------------------------------------------------|
x|-------------------------------------------------|
F|-7--7-----7--7--7-----7--5--5-----5-----5--------|
C|-5--5-----5--5--5-----5--3--3-----3-----3--------|

F|-------0-----------0-----------0-----3--3--3--3--|
F|-------0-----------0-----------0-----3--3--3--3--|
x|-------------------------------------------------|
x|-------------------------------------------------| x2
F|-7--7-----7--7--7-----7--5--5-----5--5--5--5--5--|
C|-5--5-----5--5--5-----5--3--3-----3--3--3--3--3--|

F|-------0-----------0----------------------|
F|-------0-----------0----------------------|
x|------------------------------------------|
x|------------------------------------------|
F|-7--7-----7--7--7-----7--5--5--5--5--5----|
C|-5--5-----5--5--5-----5--3--3--3--3--3----|

F|-----------------------------------------|
F|-----------------------------------------|
x|-----------------------------------------|
x|-----------------------------------------|
F|-7~--------------------------------------|
C|-5~--------------------------------------|

Rest in peace Ricky Wilson.

            
            
Suggest correction
Creating personal tab
Creating personal tab
You can edit any tab online and save it as your Personal.

You can edit, replace or remove any tab part or add personal notes – all changes will be seen only by you.

Personal tabs can be accessed anytime from any device, even offline.
Learn more »
Give kudos to tab author, rate the tab!
1 2 3 4 5
comments
print report bad tab
2 comments total.
+1 reply
Always-Ben 241 Aug 20, 2016 05:20 PM

Excellent tab! It's always nice to see someone willing to take the time to figure out Ricky's tunings before doing the tab. I hope there'll be more B52s tabs from you soon!

0 reply
Always-Ben 241 Sep 02, 2017 01:41 AM

PErfect!

guest
You may want to rate the tab now too:
select rating
Wanna post a correction for this tab? Suggest correction