Oops, an error
Loading. Please wait.

Following chords

version 2
version 2

Whole song

349 views 1 this week
no commentswrite comment
1 2 3 4 5
2 more votes to show rating
add to favorites
×
Save as Personal and add changes to this tab that will be seen only by you. Learn more ›
×
You can save this tab as Personal to edit and correct it or add notes. All changes will be seen only by you. Learn more »
launch autoscroll
font size
0
reset
transpose
0
reset
display chords
guitar tuner
edit
Autoscroll
slow
fast
+/-
esc
set tempo
stop
Strumming
There is no strumming pattern for this song yet. and get +5 IQ
Song : Following
Band : The Bangles
Album: Different Light (1986)

[Chords]
G#m 466444
A   557765
E   476454
C#m 447654
C#  143121

F#m      G#m       A       E           D       Bm          
-----2-------4---|-------------5------|-----2-------2---|
-----2-------4---|-----2------5--5--5-|-----3-------3---|
-----------------|-----2--------------|---2-------------|
-----------6---6-|---2-------6----6---|-0---------4-----|
-----------------|-0-------7----------|---------2-------|
-2-2-----4-------|--------------------|-----------------|

F#sus4            F#m                  F#m                 
-----2-----2-----|------2-------------|---2---------------|
---2-2---2---2---|----2-------------2-|---2-----5---------|
-------4---------|--------------------|---------6-4h5p4-2-|
-----------------|----4-------2-2-4---|-------------------|
-4---------------|--------2-4---------|-------------------|
-----------------|-4------------------|-4-----4-----------|

[Verse 1]
F#m
You think I'm crazy or something, always following you around
                                                       Bm     E
You say I'm a hopeless case, run an obsession into the ground
F#m
You call me a loser, you call me shadowing fool
                                                 Bm   E
Look over your shoulder and you say I'm haunting you

F#m           G#m      A          E
So why do you call me? Why do you look for me?
    D                Bm                     C#m    C#  F#m
And why do your eyes follow me the way they do?

[Verse 2]
F#m
You hold me responsible, yes, so I stand accused
                                     Bm             E
Of causing all the trouble after highschool between him and you
F#m
Yeah, you call me a loser, you call me a shadowing fool
                                                        Bm               E
But I was a good girl, yeah, till you taught me what it means to be true

F#m           G#m      A          E
So why do you call me? Why do you look for me?
    D                Bm                     E    C#
And why do your eyes follow me the way they do?
F#m        G#m      A          E
Why do you call me? I know you look for me
D                Bm                     C#m    C#
Why do your eyes follow me the way they do?

F#m

            
            
Suggest correction
Creating personal tab
Creating personal tab
You can edit any tab online and save it as your Personal.

You can edit, replace or remove any tab part or add personal notes – all changes will be seen only by you.

Personal tabs can be accessed anytime from any device, even offline.
Learn more »
Give kudos to tab author, rate the tab!
1 2 3 4 5
comments
print report bad tab
guest
You may want to rate the tab now too:
select rating
Wanna post a correction for this tab? Suggest correction