Oops, an error
Loading. Please wait.

If She Knew What She Wants bass

version 2
version 2

Whole song

64 views 6 this week
no commentswrite comment
1 2 3 4 5
1 last vote to show rating
add to favorites
×
Save as Personal and add changes to this tab that will be seen only by you. Learn more ›
×
You can save this tab as Personal to edit and correct it or add notes. All changes will be seen only by you. Learn more »
launch autoscroll
font size
0
reset
guitar tuner
edit
Autoscroll
slow
fast
+/-
esc
set tempo
stop
If She Knew What She Wants
The Bangles
Tab by: LazyDogPeachy

https://www.youtube.com/watch?v=mu_pNeqAQ-U
Standard tune; 4/4;  

[Intro]
G|---------------------|---------------------|---------------------|---------------------|
D|---------------------|---------------------|---------------------|---------------------|
A|---------R-----------|----------R----------|----------R----------|-----------R---------|
E|---------------------|---------------------|---------------------|---------------------|
                                                  Ooh....                         ooh, 
G|---------------------|---------------------|---------------------|---------------------|
D|---------------------|---2----2--4------4--|---------------------|---2----2--4------4--|
A|---2---2-2--------2--|---------------------|---2---2-2--------2--|---------------------|
E|---------------------|---------------------|---------------------|---------------------|
     ooh....                                                                          If she

[Chorus 1]
G|---------------------|---------------------|---------------------|---------------------|
D|---------------------|---2----2--4------4--|---------------------|---2----2--4------4--|
A|---2---2--2-------2--|---------------------|---2---2--2-------2--|---------------------|
E|---------------------|---------------------|---------------------|---------------------|
     knew what she         giving it to her),     knew what she needs  give her      If she
     wants (he'd be                 If she             (he'd could     that too)
G|---------------------|---------------------|---------------------|---------------------|
D|---------------------|---2----2--4------4--|-/6-----6----4----6--|---------------------|
A|---2---2--2-------2--|---------------------|---------------------|--4----x---4--4----2-|
E|---------------------|---------------------|---------------------|---------------------|
     knew what she         can't see through    knew  what she        giving it to her
     wants (but he           her)     If she       wants, He'd be 
G|---------------------|
D|--2----x---2---4---4-|
A|---------------------|
E|---------------------|
    Giving it to    If she
       her.
[Chorus 2]
G|---------------------|---------------------|-----------------4---|---------------------|
D|---------------------|---2----2--4------4--|-------------------4-|---2----2--4------4--|
A|---2---2--2-------2--|---------------------|---2---2--2----------|---------------------|
E|---------------------|---------------------|---------------------|---------------------|
     wants everything,     tend to giver her     nothing she wants     want to sort   He's
      (He can pre-        everything) Or there's   ( she don't         it out.)
G|---------------------|---------------------|---------------------|---------------------|
D|---------------------|---2----2--4------4--|-/6-----6----4----6--|---------------------|
A|---2---2--2-------2--|---------------------|---------------------|--4----x---4--4----2-|
E|---------------------|---------------------|---------------------|---------------------|
     crazy fo this       don't know what she's  knew  what she        giving it to her
     girl(but she      looking for) If she       wants, He'd be 
G|---------------------|
D|--2----x---2---4---4-|
A|---------------------|
E|---------------------|
    Giving it to her.

[Verse 1]
G|---------------------|---------------------|---------------------|---------------------|
D|---------------------|---------------------|---------------------|-----------------9---|
A|--7---x--7--7-----7--|---------------------|---------------------|-------------------9-|
E|---------------------|--4---x--4--4-----4--|--6---x--6--6-----6--|--7---x--7--7--------|
    I'd say her           values are corrup-    open     to           change,    Then one
                            ted but she's
G|---------------------|---------------------|---------------------|---------------------|
D|---------------------|---------------------|---------------------|---------------------|
A|--7---x--7--7-----7--|---------------------|---------------------|-/9---x--9--9-----9--|
E|---------------------|--4---x--4--4-----4--|--2---x--2--2-----2--|---------------------|
    day she's satis-      next I'll find her    nothing  she can      explain...
     fied and  the        crying, And it's
G|---------------------|---------------------|---------------------|
D|---------------------|---------------------|---------------------|
A|--8---x--8--8-----8--|--7---x--7--7-----7--|--7---x--7--7-----7--|
E|---------------------|---------------------|---------------------|
                                                                If she

[Chorus 1]
G|---------------------|---------------------|---------------------|---------------------|
D|---------------------|---2----2--4------4--|---------------------|---2----2--4------4--|
A|---2---2--2-------2--|---------------------|---2---2--2-------2--|---------------------|
E|---------------------|---------------------|---------------------|---------------------|
     knew what she         giving it to her),     knew what she needs  give her      If she
     wants (he'd be                 If she             (he'd could     that too)
G|---------------------|---------------------|---------------------|---------------------|
D|---------------------|---2----2--4------4--|-/6-----6----4----6--|---------------------|
A|---2---2--2-------2--|---------------------|---------------------|--4----x---4--4----2-|
E|---------------------|---------------------|---------------------|---------------------|
     knew what she         can't see through    knew  what she        giving it to her
     wants (but he           her)     If she       wants, He'd be 
G|---------------------|---------------------|
D|--2----x---2---2---2-|--2----x---2---2---2-|
A|---------------------|---------------------|
E|---------------------|---------------------|
    Giving it to her     (Giving it to her)
       

[Bridge]
G|---------------------|---------------------|---------------------|---------------------|
D|-/6------------------|---------------------|---------------------|---------------------|
A|---------------------|----------R----------|--7---x--7--7-----7--|--6---x--6--6--------|
E|---------------------|---------------------|---------------------|------------------7--|
                                                Some have a           style         That they
G|---------------------|---------------------|---------------------|---------------------|
D|---------------------|---------------------|---------------------|---------------------|
A|--7---x--7--7-----7--|--6---x--6--6-----6--|---------------------|---------------------|
E|---------------------|---------------------|--4---x--4--4-----4--|--2---x--2--2-----2--|
    work hard to re  -    fine        so they   walk  on crooked      line.
G|---------------------|---------------------|---------------------|---------------------|
D|---------------------|------------------2--|--1---x--1--1--------|--2---x--2--2-----2--|
A|--1----0-------------|----------------2----|------------------2--|---------------------|
E|------------4----2---|--0---x--0--0--------|---------------------|---------------------|
             But she      won't     under       stand       Why       anyone would have to  
G|---------------------|---------------------|---------------------|---------------------|
D|--1---x--1--1-----1--|---------------------|---------------------|---------------------|
A|---------------------|---------------------|---------------------|---------------------|
E|---------------------|--4---x--4--4-----4--|--2---x--2--2-----2--|--1---x--1--1-----1--|
    try?   To walk the    line when they        fly?
                                    could
G|---------------------|
D|---------------------|
A|-/7---x--7--7-----7--|
E|---------------------|

[Solo]
G|---------------------|---------------------|---------------------|---------------------|
D|---------------------|---2----2--4------4--|---------------------|---2----2--4------4--|
A|---2---2--2-------2--|---------------------|---2---2--2-------2--|---------------------|
E|---------------------|---------------------|---------------------|---------------------|

G|-----------------4---|---------------------|---------------------|---------------------|
D|-------------------4-|---2---2--2-------2--|-/6-----6----4----6--|---------------------|
A|---2---2--2----------|---------------------|---------------------|--4----x---4--4----2-|
E|---------------------|---------------------|---------------------|---------------------|

G|---------------------|-----------------4---|
D|--2----x---2---4---4-|-------------------4-|
A|---------------------|---2---2--2----------|
E|---------------------|---------------------|

[Verse 2]
G|---------------------|---------------------|---------------------|------------------4--|
D|--2~-----------------|-/6~-----------------|--\4~----------------|---------------4-----|
A|---------------------|---------------------|---------------------|--2~-----------------|
E|---------------------|---------------------|---------------------|---------------------|
   No sense thinking      rehabilitate her      fine,   fine,         fine.   She's got so
      I could               when she's 
G|---------------------|---------------------|---------------------|---------------------|
D|--2~-----------------|-/6~---------------6-|-8~------------------|--4---x--4--4-----4--|
A|---------------------|---------------------|---------------------|---------------------|
E|---------------------|---------------------|---------------------|---------------------|
   many ideas travel      round in her head,    doesn't need no-      mine.
         ing   a -               She               thing from
G|---------------------|---------------------|---------------------|
D|--3---x--3--3-----3--|--2---x--2--2-----2--|--2---x--2--2-----2.-|
A|---------------------|---------------------|---------------------|
E|---------------------|---------------------|---------------------|
                                                              If she

[Double Chorus]
G|---------------------|---------------------|---------------------|---------------------|
D|---------------------|---------------------|---------------------|---------------------|
A|--------R------------|----------R----------|----------R----------|-----------R---------|
E|---------------------|---------------------|---------------------|---------------------|
     knew what she         giving it to her),     knew what she needs  give her      If she
     wants (he'd be                 If she             (he'd could     that too)
G|---------------------|---------------------|---------------------|------------------6--|
D|---------------------|---------------------|--6~----6--4~--------|---------------6-----|
A|--------R------------|----------R----------|---------------------|--4~-----------------|
E|---------------------|---------------------|---------------------|---------------------|
    knew what she         can't see through     knew  what she        giving it to her
     wants (but he           her)     If she       wants, He'd be 
G|---------------------|---------------------|---------------------|---------------------|
D|--2~---------4~------|---------------------|---2----2--4------4--|---------------------|
A|---------------------|---2---2--2-------2--|---------------------|---2---2--2-------2--|
E|---------------------|---------------------|---------------------|---------------------|
    (giving it to her)     wants everything,     tend to giver her     nothing she wants
               If she      (He can pre-        everything) Or there's   ( she don't
G|---------------------|---------------------|---------------------|---------------------|
D|---2----2--4------4--|---------------------|---2----2--4------4--|-/6-----6----4----6--|
A|---------------------|---2---2--2-------2--|---------------------|---------------------|
E|---------------------|---------------------|---------------------|---------------------|
    want to sort   He's    crazy fo this       don't know what she's  knew  what she
     it out.)              girl(but she      looking for) If she       wants, He'd be
G|---------------------|---------------------|
D|---------------------|---2----2--4------4--|
A|--4---x--4--4----2-4-|---------------------|
E|---------------------|---------------------|
   giving it to her,       giving it to her

[Outro]
G|---------------------|---------------------|----------------4----|---------------------|
D|---------------------|---2----2--4------4--|------------------4--|---2----2--4------4--|
A|---2---2--2-------2--|---------------------|---2---2--2----------|---------------------|
E|---------------------|---------------------|---------------------|---------------------|
               (He can    give it to her)            (He can give     give her that too)
G|---------------------|---------------------|---------------------|---------------------|
D|---------------------|---2----2--4------4--|-/6-----6----4----6--|---------------------|
A|---2---2--2-------2--|---------------------|---------------------|--4---x--4--4----2---|
E|---------------------|---------------------|---------------------|---------------------|
          (but you         can't   through her) Ooh                   Giving it to her
G|---------------------|---------------------|
D|---2---2--2h4p2------|---------------------|
A|---------------------|--2~-----------------|
E|---------------------|---------------------|
    givig it to her       now.

***************************
| R - whole rest
| ~ - vibrato
| x - muted/dead note
| / - slide up
| \ - slide down
***************************

            
            
Suggest correction
Creating personal tab
Creating personal tab
You can edit any tab online and save it as your Personal.

You can edit, replace or remove any tab part or add personal notes – all changes will be seen only by you.

Personal tabs can be accessed anytime from any device, even offline.
Learn more »
Give kudos to tab author, rate the tab!
1 2 3 4 5
comments
print report bad tab
guest
You may want to rate the tab now too:
select rating
Wanna post a correction for this tab? Suggest correction