Oops, an error
Loading. Please wait.

Restless tab

34 views 1 this week
no commentswrite comment
1 2 3 4 5
x 3
add to favorites
×
Save as Personal and add changes to this tab that will be seen only by you. Learn more ›
×
You can save this tab as Personal to edit and correct it or add notes. All changes will be seen only by you. Learn more »
launch autoscroll
font size
0
reset
how to read this tab
guitar tuner
edit
Autoscroll
slow
fast
+/-
esc
set tempo
stop
Artist: The Bangles
Song: Restless
Tabbed by Jack Delonge
Thanks to LazyDogPeachy for arranging the tab into measures!
https://www.youtube.com/watch?v=qeulOi1DFQw

[Intro] (Gtr1 2 play chords; Gtr 1 play tabs)
(Gtr 2)
       Cm                  Cm                    F7                   G7

(Gtr 1)
e|---------------------|---------------------|---------------------|---------------------|
B|-----10b11r10--8-----|---8-10-10b11r10)-8--|---10-10-10p8-10/12--|--12~----------------|
G|-----10b11r10--8-----|---8-10-10b11r10)-8--|---10-10-10p8-10/12--|---------------------|
D|---------------------|10-------------------|---------------------|---------------------|
A|---------------------|---------------------|---------------------|---------------------|
E|---------------------|---------------------|---------------------|---------------------|

[Verse 1]
(Gtr 2)
    Cm                     Bb                    Cm       F7            Cm      F7

(Gtr 1)
e|---------------------|---------------------|----8---x—--8—--x----|----8---x—--8—--x----|
B|---------------------|---------------------|----8---x—--10--x----|----8---x—--10--x----|
G|---------------------|---------------------|----8---x—--8—--x----|----8---x—--8—--x----|
D|--10~----------------|---8~----------------|----10--x—--10--x----|----10--x---10--x----|
A|--10~----------------|---8~--8-6-r---------|----10--x—--8—--x----|----10--x---8---x----|
E|--8~-----------------|---6~----------6-6/8-|----8---x------------|----8---x------------|
    Saw your head turned   bit to far to the      right now,
                  a               
(Gtr 2)
    Cm                    Bb                     G                     G

(Gtr 1)  
e|---------------------|---------------------|---------------------|---------------------|
B|---------------------|---------------------|---------------------|---------------------|
G|---------------------|---------------------|---------------------|---------------------|
D|--10~----------------|--8~-----------------|---x---5---x---5-----|---x---5---x---5-----|
A|--10~----------------|--8~--8-6-r----------|---x---5---x---5-----|---x---5---x---5-----|
E|--8~-----------------|--6~--------6-6\-----|---3---3---3—--3-----|---3---3---3—--3-----|
    Saw the eye go a      little spark when she  walks     by            now.           But

[Pre-Chorus]
(Gtr 2)
    F7                    F7                     F7                     G7      
 
(Gtr 1)
e|--8--x-8--x-8--x-8---|--8--x-8--x-8--x-8---|--8--x-8--x-8--x-8---|----10--x--10--x-----|
B|--10-x-10-x-10-x-10--|--10-x-10-x-10-x-10--|--10-x-10-x-10-x-10--|----12--x--12--x-----|
G|--8--x-8--x-8--x-8---|--8--x-8--x-8--x-8---|--8--x-8--x-8--x-8---|----10--x--10--x-----|
D|--10-x-10-x-10-x-10--|--10-x-10-x-10-x-10--|--10-x-10-x-10-x-10--|----12--x--12--x-----|
A|--8--x-8--x-8--x-8---|--8--x-8--x-8--x-8---|--8--x-8--x-8--x-8---|----10--x--10--x-----|
E|---------------------|---------------------|---------------------|---------------------|
    if you wanna love,   you wanna love          I'll leave it up to    you.        But I
                              another girl  
 
[Chorus]
(Gtr 2)
     Cm F7                   Cm F7                  Cm F7             G

(Gtr 1)
e|---8--8-~------------|--x--8--8--~----------|--x--8--8-~---------|---------------------|
B|---8--10~------------|--x--8--10-~----------|--x--8--10~---------|---------------------|
G|---8--8-~------------|--x--8--8--~----------|--x--8--8-~---------|---------------------|
D|---10-10~------------|--x--10-10-~----------|--x--10-10~---------|---5-5~--------------|
A|---10-8-~------------|--x--10-8--~----------|--x--10-8-~---------|---5-5~--------------|
E|---8-----------------|--x--8-----~----------|--x--8----~---------|---3-3~--------------|
     won't be tested     (You feel restless)     while you feel        (restless...)
                                                        restless, 
[Verse 2]
(Gtr 2)
    Cm                     Bb                     Cm      F7            Cm      F7

(Gtr 1)
e|---------------------|---------------------|----8---x—--8—--x----|----8---x—--8—--x----|
B|---------------------|---------------------|----8---x—--10--x----|----8---x—--10--x----|
G|---------------------|---------------------|----8---x—--8—--x----|----8---x—--8—--x----|
D|--10~----------------|---8~----------------|----10--x—--10--x----|----10--x---10--x----|
A|--10~----------------|---8~--8-6-r---------|----10--x—--8—--x----|----10--x---8---x----|
E|--8~-----------------|---6~----------6-6/8-|----8---x------------|----8---x------------|
    Now I'm wondering      every time that you    hold me,

(Gtr 2)
    Cm                    Bb                     G                     G

(Gtr 1)   
e|---------------------|---------------------|---------------------|---------------------|
B|---------------------|---------------------|---------------------|---------------------|
G|---------------------|---------------------|---------------------|---------------------|
D|--10~----------------|--8~-----------------|---x---5---x---5-----|---x---5---x---5-----|
A|--10~----------------|--8~--8-6-r----------|---x---5---x---5-----|---x---5---x---5-----|
E|--8~-----------------|--6~--------6-6\-----|---3---3---3—--3-----|---3---3---3—--3-----|
  Well,   should I        anything you have      told me?                              But
             question

[Pre Chorus]
(Gtr 2)
    F7                    F7                     F7                     G7      
 
(Gtr 1)
e|--8--x-8--x-8--x-8---|--8--x-8--x-8--x-8---|--8--x-8--x-8--x-8---|----10--x--10--x-----|
B|--10-x-10-x-10-x-10--|--10-x-10-x-10-x-10--|--10-x-10-x-10-x-10--|----12--x--12--x-----|
G|--8--x-8--x-8--x-8---|--8--x-8--x-8--x-8---|--8--x-8--x-8--x-8---|----10--x--10--x-----|
D|--10-x-10-x-10-x-10--|--10-x-10-x-10-x-10--|--10-x-10-x-10-x-10--|----12--x--12--x-----|
A|--8--x-8--x-8--x-8---|--8--x-8--x-8--x-8---|--8--x-8--x-8--x-8---|----10--x--10--x-----|
E|---------------------|---------------------|---------------------|---------------------|
    if you wanna love,   you wanna love          I'll leave it up to    you.        But I
                              another girl  
 
[Chorus]
(Gtr 2)
     Cm F7                   Cm F7                  Cm F7             G

(Gtr 1)
e|---8--8-~------------|--x--8--8--~----------|--x--8--8-~---------|---------------------|
B|---8--10~------------|--x--8--10-~----------|--x--8--10~---------|---------------------|
G|---8--8-~------------|--x--8--8--~----------|--x--8--8-~---------|---------------------|
D|---10-10~------------|--x--10-10-~----------|--x--10-10~---------|---5-5~--------------|
A|---10-8-~------------|--x--10-8--~----------|--x--10-8-~---------|---5-5~--------------|
E|---8-----------------|--x--8-----~----------|--x--8----~---------|---3-3~--------------|
     won't be tested     (You feel restless)     while you feel        (restless...)
                                                        restless, 
[Solo]
(Gtr 2)
   Cm            Cm            Cm                    Cm

(Gtr 1)
e|-------------|-------------|--------------------|----------------|
B|-10b12r10b12r|-10b12r10b12r|----------8--8------|-10-8---8-8--8--|
G|-10b12r10b12r|-10b12r10b12r|-10p8h10--10-8------|-10-8---1010-8--|
D|-------------|-------------|---------------8-10-|----------------|
A|-------------|-------------|--------------------|----------------|
E|-------------|-------------|--------------------|----------------|

(Gtr 2)
    Cm            Cm            Cm                 G7

(Gtr 1)
e|-------------|-------------|-------------------|------------------|
B|-10b12r10b12r|-10b12r10b12r|-10~-10p8-10-8-10r-|10/12-----12---12-|
G|-10b12r10b12r|-10b12r10b12r|-10~-10p8-10-8-10r-|10/12—-12----12---|
D|-------------|-------------|-------------------|------------------|
A|-------------|-------------|-------------------|------------------|
E|-------------|-------------|-------------------|------------------|

[Mid 8]
(Gtr 2) 
   N.C.                N.C.                Cm F7               Cm F7

(Gtr 1)
e|-----------------|-----------------|-----------------|-----------------| 
B|-----------------|-----------------|-----------------|-----------------|
G|-----------8-----|----------8------|-----------------|-----------------|
D|-10--10-10---10--|----10-10---10---|--------R--------|------R----------|
A|-----------------|-----------------|-----------------|-----------------|
E|-----------------|-----------------|-----------------|-----------------|

(Gtr 2)
    N.C.                N.C.                Cm F7               Cm F7

(Gtr 1)
e|-----------------|-----------------|-----------------|-----------------| 
B|-----------------|-----------------|-----------------|-----------------|
G|-----------8-----|----------8------|-------------11b-|--13--------r11--|
D|-10--10-10---10--|----10-10---10---|-----------------|-----------------|
A|-----------------|-----------------|-----------------|-----------------|
E|-----------------|-----------------|-----------------|-----------------|

[Verse 3]
(Gtr 2)
    Cm                   Bb                    Cm

(Gtr 1)
e|---------------------|---------------------|---------------------|---------------------|
B|---------------------|---------------------|---------------------|---------------------|
G|---------------------|---------------------|---------------------|---------------------|
D|--10~----------------|-8~------------------|-10~-----------------|----------R----------|
A|--10~----------------|-8~------------------|-10~-----------------|---------------------|
E|--8~-----------------|-6~------------------|-8~------------------|---------------------|
    I remember when      you and I were a      nation.

(Gtr 2)
     Cm                   Bb                     G

(Gtr 1) 
e|---------------------|---------------------|---------------------|---------------------|
B|---------------------|---------------------|---------------------|---------------------|
G|---------------------|---------------------|---------------------|---------------------|
D|--10~----------------|--8~-----------------|---x---5---x---5-----|---x---5---x---5-----|
A|--10~----------------|--8~--8-6-r----------|---x---5---x---5-----|---x---5---x---5-----|
E|--8~-----------------|--6~--------6-6\-----|---3---3---3—--3-----|---3---3---3—--3-----|
   I could trust you in   any dark situ   -      ation.                              But

[Pre-Chorus]
(Gtr 2)
    F7                    F7                     F7                     G7       

(Gtr 1)
e|--8--x-8--x-8--x-8---|--8--x-8--x-8--x-8---|--8--x-8--x-8--x-8---|----10--x--10--x-----|
B|--10-x-10-x-10-x-10--|--10-x-10-x-10-x-10--|--10-x-10-x-10-x-10--|----12--x--12--x-----|
G|--8--x-8--x-8--x-8---|--8--x-8--x-8--x-8---|--8--x-8--x-8--x-8---|----10--x--10--x-----|
D|--10-x-10-x-10-x-10--|--10-x-10-x-10-x-10--|--10-x-10-x-10-x-10--|----12--x--12--x-----|
A|--8--x-8--x-8--x-8---|--8--x-8--x-8--x-8---|--8--x-8--x-8--x-8---|----10--x--10--x-----|
E|---------------------|---------------------|---------------------|---------------------|
    if you wanna love,   you wanna love          I'll leave it up to    you.        But I
                              another girl  
 
[Chorus]
(Gtr 2)
     Cm F7                   Cm F7                  Cm F7             G

(Gtr 1)
e|---8--8-~------------|--x--8--8--~----------|--x--8--8-~---------|---------------------|
B|---8--10~------------|--x--8--10-~----------|--x--8--10~---------|---------------------|
G|---8--8-~------------|--x--8--8--~----------|--x--8--8-~---------|---------------------|
D|---10-10~------------|--x--10-10-~----------|--x--10-10~---------|---5-5~--------------|
A|---10-8-~------------|--x--10-8--~----------|--x--10-8-~---------|---5-5~--------------|
E|---8-----------------|--x--8-----~----------|--x--8----~---------|---3-3~--------------|
     won't be tested     (You feel restless)     while you feel        (restless...)
                                                        restless, 
[Mid 8 Reprise]

(Gtr 2)
   N.C.                N.C.                Cm F7               Cm F7

(Gtr 1)
e|-----------------|-----------------|-----------------|-----------------| 
B|-----------------|-----------------|-----------------|-----------------|
G|-----------8-----|----------8------|-----------------|-----------------|
D|-10--10-10---10--|----10-10---10---|--------R--------|--------R--------|
A|-----------------|-----------------|-----------------|-----------------|
E|-----------------|-----------------|-----------------|-----------------|

(Gtr 2)
   N.C.                N.C.                Cm F7               Cm F7

(Gtr 1)
e|-----------------|-----------------|-----------------|-----------------| 
B|-----------------|-----------------|-------------11b-|--13--------r11--|
G|-----------8-----|----------8------|-----------------|-----------------|
D|-10--10-10---10--|----10-10---10---|-----------------|-----------------|
A|-----------------|-----------------|-----------------|-----------------|
E|-----------------|-----------------|-----------------|-----------------|

[Ending]
(Gtr 2)
e|---8---8---------|---8---8-~-------|-----------------|-----------------| 
B|---8---10--------|---8---10~-------|-----------------|-----------------|
G|---8---8---------|---8---8-~-------|-----------------|-----------------|
D|---10--10--------|---10--10~-------|-----------------|-----------------|
A|-----------------|-----------------|-----------------|-----------------|
E|-----------------|-----------------|-----------------|-----------------|

(Gtr 1)
e|-----------------|-----------------|-----------------|-----------------| 
B|---11\8~---------|-----------------|-----------------|-----------------|
G|-----------------|-----------------|-----------------|-----------------|
D|-----------------|-----------------|-----------------|-----------------|
A|-----------------|-----------------|-----------------|-----------------|
E|-----------------|-----------------|-----------------|-----------------|


******************************

| b  - bend
| r  - release
| /  - slide up
| \  - slide down
| R  - whole rest
| ~  - vibrato

*****************************

            
            
Suggest correction
Creating personal tab
Creating personal tab
You can edit any tab online and save it as your Personal.

You can edit, replace or remove any tab part or add personal notes – all changes will be seen only by you.

Personal tabs can be accessed anytime from any device, even offline.
Learn more »
Give kudos to tab author, rate the tab!
1 2 3 4 5
comments
print report bad tab
guest
You may want to rate the tab now too:
select rating
Wanna post a correction for this tab? Suggest correction