Oops, an error
Loading. Please wait.

Beggar In The Morning tab

340 views 3 this week
no commentswrite comment
1 2 3 4 5
3 more votes to show rating
add to favorites
×
Save as Personal and add changes to this tab that will be seen only by you. Learn more ›
×
You can save this tab as Personal to edit and correct it or add notes. All changes will be seen only by you. Learn more »
launch autoscroll
font size
0
reset
how to read this tab
guitar tuner
edit
Autoscroll
slow
fast
+/-
esc
set tempo
stop
Author
About this tab version
It's different 'cause it's in the correct tuning. Was this info helpful? Yes No
This is not verbatim, but it's basically it and much more correct.

[intro
]
e|--------------------------|
B|--0----0--0-----0--0-0----|
G|--0----0--0-----2--0-0----|
D|--0----0--0-----0--4-0----|
A|--4----4--4-----4--5-4----|
E|--5----5--2-----0--5-5----|

Hold your finger on the 5th fret of the b string when you transition
to the 24000x in this next part

[verse]
e|----------------------------------|
B|--0-3-3-3-5-0-(0)-0--0-0----------|
G|--0---0-----0--0--2--0-0----------|
D|--0---0-----0--0--0--4-0----------|
A|--4---4-----4--4--4--5-4----------|
E|--5---5-----5--2--0--5-5----------|

*Not so sure about this part*

 "oh whoa whoa oh, oh whoa oh ah ah oh oh..."
e|---------------------------------------------------|
B|b------------------------------(0)-------------0---|
G|g-------------------------------2--0--------2--0---|
D|d---0-h2p0-----0-2-4-2-0--------0--0--------0--0---|
A|g--4----(0)---4---------4-4-2-0-x--0--4-2-0-x--0---|
E|d--5----(0)--(0)----------------2-(0)-------2-(0)--|

 sing "...we were young our eyes were blue..." then play this
e|--5--7--5--0--3-----|
B|b--0--0--0--0--0----|
G|g--0--0--0--0--0----|
D|d--0--0--0--0--0----|
A|g--5--5--5--5--4----|
E|d--0--0--0--0--5----|

 aside from that there's this little thing he does during the instrumental middle part 
(i also think maybe he
 holds the 5th fret on the e string when transitions to the next chord again)
e|---------------------3-5-5----------------------|
B|b--0-3-3-3-5-0-(0)---0---0----0-0---0-0---------|
G|g--0---0-----0--0----0---0----0-2---0-0---------|
D|d--0---0-----0--0----0---0----0-0---4-0---------|
A|g--4---4-----4--4----4---4----4-4---5-4---------|
E|d--5---5-----5--2----2---2----2-0---5-5---------|



************************************

| (n)  Ghost note
| b    Bend
| g    Grace note
| h    Hammer-on
| p    Pull-off
| x    Dead note


************************************

            
            
Suggest correction
Creating personal tab
Creating personal tab
You can edit any tab online and save it as your Personal.

You can edit, replace or remove any tab part or add personal notes – all changes will be seen only by you.

Personal tabs can be accessed anytime from any device, even offline.
Learn more »
Give kudos to tab author, rate the tab!
1 2 3 4 5
comments
print report bad tab
guest
You may want to rate the tab now too:
select rating
Wanna post a correction for this tab? Suggest correction