Oops, an error
Loading. Please wait.

Even The Darkness Has Arms intro tab

version 1
version 1

Intro

Whole song

1,882 views 27 this week
1 commentread comment
1 2 3 4 5
x 7
add to favorites
×
Save as Personal and add changes to this tab that will be seen only by you. Learn more ›
×
You can save this tab as Personal to edit and correct it or add notes. All changes will be seen only by you. Learn more »
launch autoscroll
font size
0
reset
how to read this tab
guitar tuner
edit
Autoscroll
slow
fast
+/-
esc
set tempo
stop
All other tabs/tutorials for this song are not accurate at all, so I've had a go myself.
I watched a live set of this song at half speed about 500 times, and here is what I've come up with. 
I'm pretty confident that it's spot on. 

TUNING: DGDGBD
Capo on 4th

|---------------------------------|
|---------------------------------|
|-2h4-----0h2---------0h2---0-----|
|-------0-------0-0h2-----------0-| x1
|-0---0-------0---------------0---|
|-----------------2-------2-------|

|---------------------------------|
|---------------------------------|
|-2h4-----0h2---------0h2---0-----|
|-------0-------0-0h2-----------0-| x3
|-----0-------0---------------0---|
|-----------------2-------2-------|

|---------------------------------|
|-3h5-----0h3---------0---0-------|
|-------0-------0-0h2---2---0---0-|
|-----------------------------0---| x4
|-5---5-------5-------------------|
|-----------------0-------0-------|


The chords can be found elsewhere.
I just wanted to share the correct intro of this beautiful song with you beautiful people.
Rock on :)

            
            
Suggest correction
Creating personal tab
Creating personal tab
You can edit any tab online and save it as your Personal.

You can edit, replace or remove any tab part or add personal notes – all changes will be seen only by you.

Personal tabs can be accessed anytime from any device, even offline.
Learn more »
comments
print report bad tab
1 comment total.
0 reply
necriononguitar 3,062 Aug 16, 2016 08:50 AM

yea dude, I was playing drop D before but also dropping the A to a G works great, too.
the finger picking is spot on, nice work!

guest
Wanna post a correction for this tab? Suggest correction