Oops, an error
Loading. Please wait.

The Junkie Song chords

4,002 views 9 this week
1 commentread comment
1 2 3 4 5
x 7
add to favorites
×
Save as Personal and add changes to this tab that will be seen only by you. Learn more ›
×
You can save this tab as Personal to edit and correct it or add notes. All changes will be seen only by you. Learn more »
launch autoscroll
font size
0
reset
transpose
0
reset
display chords
guitar tuner
edit
Autoscroll
slow
fast
+/-
esc
set tempo
stop
Author
Difficulty
Strumming
There is no strumming pattern for this song yet. and get +5 IQ
The Junkie Song - The Be Good Tanyas

  (intro) [Am]>[G] [C] [G_] (x2) / [Am] [G_]

  (verse 1)
[Am] Took a walk in [C] my neighbour[G_]hood
[Am] Two in the [G] morning
By the [Am] Skytrain [G_] station

  (verse 2)
[Am] The streets of full of [C] junkies and [G_] homeless
And they [Am] all wanted [G] something
They [Am] all wanted [G_] something

  (break) [Am]>[G] [C] [G_] (x2)

  (verse 3)
[Am] And what am I sup[C]posed to [G_] do?
There are [Am] too many of [G] you
[Am] Too many [G_] of you

  (verse 4)
[Am] They sometimes [C] look you in the [G_] eye
Say that "[Am] I too am [G] human,"
I could [Am] easily [G_] be here."

  (break) [Am]>[G] [C] [G] (x2)

  (bridge)
[C] Though we all [Am] hover between [F] apathy and com[D]passion
[C] We fill up all our [Am] days with [F] so much dis[D]traction
[C] What makes it [Am] easier not to to [F] see what we don't [D] want to
But we [C] all live here, we [Am] all live here, we [F] all live here, 

don't [D] we?

  (break) [Am]>[G] [C] [G_] (x2)

  (repeat verses 1, 2, 3 and 4)
  
  (repeat "Easily be here" x2)
  
  (end on C)

            
            
Suggest correction
Creating personal tab
Creating personal tab
You can edit any tab online and save it as your Personal.

You can edit, replace or remove any tab part or add personal notes – all changes will be seen only by you.

Personal tabs can be accessed anytime from any device, even offline.
Learn more »
comments
print report bad tab
1 comment total.
+1 reply
Cowpatable 204 Sep 17, 2013 07:47 AM

Can't see why this was rated so low. There's only a couple of minor things e.g the [D] in the bridge is a [D7] and the [G] directly after the [Am] in the Intro and Break sounds off, and kind of correctly so. So if you don't mind I tabbed it:
e|-------------3--3-------------|-----------------------------|
B|-----1-----1----------1-----1-|-----1-----1--0---0------0h1-|
G|---2-----2----------2-----2---|---0-----0--------0----0-----|
D|------------------------------|-----------------------------|
A|-0-----0-----0----0-----0-----|-3-----3-------------2-------|
E|------------------------------|--------------3--------------|


|-------------3--3-------------|-----------------------------|
|-----1-----1----------1-----1-|-----1-----1--0---0------0h1-|
|---2-----2----------2-----2---|---0-----0--------0----0-----|
|------------------------------|-----------------------------|
|-0-----0-----0----0-----0-----|-3-----3-------------2-------|
|------------------------------|--------------3--------------|

|-----------------------------||
|-----1-----1--0---0------0h1-||
|---2-----2--------0----0-----||
|-----------------------------||
|-0-----0-------------2-------||
|--------------3--------------||

guest
You may want to rate the tab now too:
select rating
Wanna post a correction for this tab? Suggest correction