Oops, an error
Loading. Please wait.

Dont Talk bass

version 1
version 1

Whole song

Interactive

1,201 views 1 this week
no commentswrite comment
1 2 3 4 5
x 3
add to favorites
×
Save as Personal and add changes to this tab that will be seen only by you. Learn more ›
×
You can save this tab as Personal to edit and correct it or add notes. All changes will be seen only by you. Learn more »
launch autoscroll
font size
0
reset
guitar tuner
edit
Autoscroll
slow
fast
+/-
esc
set tempo
stop
  Brian's bass lines on Pet Sounds are amazing but have not been tabbed yet so I
will officially tab the whole album here on. Basseologist/PetSoundsBass

   Intro:
  G|------- ------- ------- -------|------- ------- ------- -------|
  D|-------------------------------|----------9-----------8--------|
  A|---6----------------9----------|--8----------------------------|
  E|-------------------------------|-------------------------------|
          I can hear so much  in your sighs,    And I can see
  G|------- ------- ------- -------|------- ------- ------- -------|
  D|------------------------9------|----8-------------------6------|
  A|-------------------------------|-------------------------------|
  E|----9------------8-------------|-------------------------------|
     So much in your eyes,    There are words we both could say

   Chorus:
  G|------- ------- -6----- 6---6--|--6----- ------- ------- -------|
  D|6----6------6--/---------------|-----6--------6----6--------6--/|
  A|-------------------------------|--------------------------------|
  E|-------------------------------|--------------------------------|
                       Dont             head on my shoulder                  talk put your
  G|--6----- --6----6- ------6- ---|------- ------- ------- -------|
  D|-------------------------------|--6-------6----6--------6--/---|
  A|-------------------------------|-------------------------------|
  E|-------------------------------|-------------------------------|
        Come close,    close your     eyes and be still
  G|------- ------- ------- -------|------- ------- ------- -------|
  D|-------------------------------|-------------------------------|
  A|--7--------7----7--------7-----|-------------------------------|
  E|-------------------------------|--7--------7----7--------7-----|
        Dont      talk     take my   hand     and  let me   hear your
  G|------- ------- ------- -------|------- ------- ------- -------|
  D|-------------------------------|-------------------------------|
  A|-----------9--------7----------|-------------------------------|
  E|--7--------------------------10|--9--------9----9--------9-----|
      Heart
   Verse:
  G|------- ------- ------- -------|------- ------- ------- -------|
  D|-------------------------------|-------------------------------|
  A|--6--------6----6--------6-----|--9--------9----8--------8-----|
  E|-------------------------------|-------------------------------|
               Being here    with     you feels so  right
  G|------- ------- ------- -------|------- ------- ------- -------|
  D|--9--------9----8--------8-----|-------------------------------|
  A|-------------------------------|-------------------------------|
  E|-------------------------------|--9--------9----8--------8-----|
        We  could   live     for      ever     to-  night
  G|------- ------- ------- -------|------- ------- ------- -------|
  D|--9-------9----8--------8------|--6--------6----6--------6--/--|
  A|-------------------------------|-------------------------------|
  E|-------------------------------|-------------------------------
         Lets not  think    to-       mor-          row
   Chorus:
  G|--6----- --6----6 -------6-----|-------- ------- ------- -------|
  D|-------------------------------|--6--------6----6--------6--/---|
  A|-------------------------------|--------------------------------|
  E|-------------------------------|--------------------------------|
                  Dont    talk put     your    head on my        shoulder
  G|--6----- --6----6- ------6- ---|------- ------- ------- -------|
  D|-------------------------------|--6-------6----6--------6--/---|
  A|-------------------------------|-------------------------------|
  E|-------------------------------|-------------------------------|
        Come close,    close your     eyes and be still
  G|------- ------- ------- -------|------- ------- ------- -------|
  D|-------------------------------|-------------------------------|
  A|--7--------7----7--------7-----|-------------------------------|
  E|-------------------------------|--7--------7----7--------7-----|
        Dont      talk     take my   hand     and  listen to my
  G|------- ------- ------- -------|------- ------- ------- -------|------- ------- ------- -------|
  D|-------------------------------|-------------------------------|-------------------------------|
  A|-----------9--------7----------|-------------------------------|-------------------------------|
  E|--7--------------------------10|--9--------9----9--------9-----|--9--------9----9--------9-----|
      heart                              Listen         Listen
   Verse Instrumental:
  G|------- ------- ------- -------|------- ------- ------- -------|
  D|-------------------------------|--6--------6----7--------7-----|
  A|--6--------6----9--------9-----|-------------------------------|
  E|-------------------------------|-------------------------------|
     Listen
  G|------- ------- ------- -------|------- ------- ------- -------|
  D|--6--------6----6--------6-----|--8--------8----9--------9-----|
  A|-------------------------------|-------------------------------|
  E|-------------------------------|-------------------------------|

  G|------- ------- ------- -------|------- ------- ------- -------|
  D|--11------------------11-------|--11--------11--11--11---------|
  A|-------------------------------|-------------------------------|
  E|--9-----------------------9----|--9----------------------------|

   Chorus:
  G|--6----- --6----6 -------6-----|-------- ------- ------- -------|
  D|-------------------------------|--6--------6----6--------6--/---|
  A|-------------------------------|--------------------------------|
  E|-------------------------------|--------------------------------|
                  Dont    talk put     your    head on my        shoulder
  G|--6----- --6----6- ------6- ---|------- ------- ------- -------|
  D|-------------------------------|--6-------6----6--------6--/---|
  A|-------------------------------|-------------------------------|
  E|-------------------------------|-------------------------------|
        Come close,    close your     eyes and be still

  G|--6----- --6----6 -------6-----|-------- ------- ------- -------|
  D|-------------------------------|--6--------6----6--------6--/---|
  A|-------------------------------|--------------------------------|
  E|-------------------------------|--------------------------------|
                  Dont    talk put     your    head on my        shoulder
  G|--6----- --6----6- ------6- ---|------- ------- ------- -------|
  D|-------------------------------|--6-------6----6--------fade out
  A|-------------------------------|-------------------------------|
  E|-------------------------------|-------------------------------|
        Come close,    close your     eyes and be still

            
            
Suggest correction
Creating personal tab
Creating personal tab
You can edit any tab online and save it as your Personal.

You can edit, replace or remove any tab part or add personal notes – all changes will be seen only by you.

Personal tabs can be accessed anytime from any device, even offline.
Learn more »
Give kudos to tab author, rate the tab!
1 2 3 4 5
comments
print report bad tab
guest
You may want to rate the tab now too:
select rating
Wanna post a correction for this tab? Suggest correction