Oops, an error
Loading. Please wait.

It Only Takes A Flashlight To Create A Monster chords

34 views 1 this week
no commentswrite comment
1 2 3 4 5
3 more votes to show rating
add to favorites
×
Save as Personal and add changes to this tab that will be seen only by you. Learn more ›
×
You can save this tab as Personal to edit and correct it or add notes. All changes will be seen only by you. Learn more »
launch autoscroll
font size
0
reset
transpose
0
reset
simplify chords
display chords
guitar tuner
edit
Autoscroll
slow
fast
+/-
esc
set tempo
stop
Author
Unregistered
Strumming
There is no strumming pattern for this song yet. and get +5 IQ
[Fig 1]
Spelas i introt och i verserna. På C#m och A kan man improvisera lite.
Noterna inom parentes är jag osäker på om de spelas av gitarren eller bara
av basgitarren.

   Bm                E                   Bm                E
e|-----2---0-2---0-|---------0-2-----4-|-----2---0-2---0-|--------0-2-----4--|
B|-----3-----3---0-|-----0-------------|-----3-----3---0-|-----0-------------|
G|-----------------|-------1-----------|-----------------|-------------------|
D|---4-------------|-------------------|---4-------------|-------------------|
A|-2-----2-----2---|---2---------------|-2-----2-----2---|---2---------------|
E|-----------------|-0-----------------|-----------------|-0-----------------|

   C#m                     A
e|------------4----------|-------------0-------|
B|-------5-------5-----5-|--------2------2-----|
G|-----6---6--------6----|-----2-----2---------|
D|-----------------------|-------------------2-|
A|-(4)-------------------|-(0)-------------0---|
E|-----------------------|---------------------|

   B
e|---------------------|-----------------|
B|--------4----4-----4h|5------------4---|
G|---------------4-----|-----4-----4---4-|
D|-----------4-----4---|---4---4h6-------|
A|-(2)-----------------|-----------------|
E|---------------------|-----------------|


[Fig 2]
Gitarrfill i introt.
  
   Bm                      E
e|-----------------------|-5-----4-----------|
B|-----------------------|--------------5----|
G|-----------------------|-------------------|
D|-----------------------|-------------------|
A|-----------------------|-------------------|
E|-----------------------|-------------------|

   Bm                      E
e|-----------------------|-------7---7h9-----|
B|-----------------------|-7S9-----------9---|
G|-----------------------|-------------------|
D|-----------------------|-------------------|
A|-----------------------|-------------------|
E|-----------------------|-------------------|

   C#m                     A
e|-------7\5-----5-------|-------------------|
B|---------------------7-|--\--5-------------|
G|-----------------------|-------------------|
D|-----------------------|-------------------|
A|-----------------------|-------------------|
E|-----------------------|-------------------|

   B
e|-----------------------|-------------------|
B|-----------------------|-------------------|
G|-6h4-------------------|-------------------|
D|-----------------------|-------------------|
A|-----------------------|-------------------|
E|-----------------------|-------------------|



[Intro]

|Bm   E  |Bm   E  |C#m  A  |B     | 2x


[Verse]

Bm    E                  Bm          E            
  I'm back can't find no pulse on my old street
C#m             A               B
  and eyes only meet mine for a second, bad impression
Bm         E       
  I didn't write or call
        Bm               E
  but I used to be worth waiting for
C#m          A           
  someone to choose a good excuse
B                     Bsus4 B
  but not anymore


[Chorus]

Emaj7
  in the afternoon rain
          G#m
recycling strength and names
A     Aadd9-A   F#madd9-F#m  B-Bsus4  A      Add9-A
  the gulls are qui  -  et   to    -  day
  F#m      B        Bsus4  Emaj7     G#m
assembling past mis   -   takes
A     Aadd9-A   F#madd9-F#m  B-Bsus4  A      Add9-A
  the gulls are qui  -  et   to    -  day
 F#madd9-F#m        B   B   
assem -  bling past mis - takes


[Interlude]

|Bm   E  |Bm  E  |C#m  A  |B     | 2x


[Verse]

Bm      E           Bm
  I was lost I felt caught
         E
  stayed indoors counting hailstorms
C#m A          B
  stepped back down
Bm             E
  reduced from friend to acquaintance
Bm               E
  summoned up in one short sentence
C#m A        B         Bsus4 B
  failed and bitter


[Chorus]

Emaj7
  in the afternoon rain
               G#m        
  my heart's a trial, a boring revival
A                    F#m  B  A
  getting thankfully wasted again
          F#m  B   Emaj7     G#m 
  in the afternoon rain
A                    F#m  B  A
  getting thankfully wasted again
          F#m  B   A      Am     
  in the afternoon rain


[Interlude]

|Bm   E  |Bm  E  |C#m  A  |B     |


[Interlude]

Emaj7
  in the afternoon rain
            G#m
  recycling strength and names
A               F#m B A
  the gulls are quiet today
    F#m      B         Emaj7     G#m
  assembling past mistakes
A                    F#m  B  A
  getting thankfully wasted again
          F#m  B   A      Am      E  
  in the afternoon rain


************************************

| (n)  Ghost note
| h    Hammer-on
| \    Slide down
| S    Slide

************************************

            
            
Suggest correction
Creating personal tab
Creating personal tab
You can edit any tab online and save it as your Personal.

You can edit, replace or remove any tab part or add personal notes – all changes will be seen only by you.

Personal tabs can be accessed anytime from any device, even offline.
Learn more »
Give kudos to tab author, rate the tab!
1 2 3 4 5
comments
print report bad tab
guest
Wanna post a correction for this tab? Suggest correction