Oops, an error
Loading. Please wait.
We have an official A Day In The Life tab made by UG professional guitarists. Check out the tab »
×

A Day In The Life bass

2,918 views 3 this week
no commentswrite comment
1 2 3 4 5
1 last vote to show rating
add to favorites
×
Save as Personal and add changes to this tab that will be seen only by you. Learn more ›
×
You can save this tab as Personal to edit and correct it or add notes. All changes will be seen only by you. Learn more »
launch autoscroll
font size
0
reset
guitar tuner
backing track
0:00
0:00
edit
Autoscroll
slow
fast
+/-
esc
set tempo
stop
Difficulty
intermediate
G|--------------------------------|------------------0-2-2-2-2-----|
D|--------------------------------|----------------------------2---|
A|----3---3---3-------3---3-------|----3---3---3---3---------------|
E|--------------------------------|--------------------------------|
  ^       ^       ^       ^        ^       ^       ^       ^       


G|0-------0--0--------------------|--------------------------------|
D|----------------4---4---4---4---|2---2---2---2---2---0-----------|
A|--------------------------------|------------------------0---2---|
E|--------------------------------|--------------------------------|
  ^       ^       ^       ^        ^       ^       ^       ^       


G|--------------------------------|--------------------------------|
D|--------------------------------|--------------------------------|
A|3-------3-------2-------2-------|0---0---0-----------------------|
E|--------------------------------|--------------------0-------2---|
  ^       ^       ^       ^        ^       ^       ^       ^       


G|--------------------------------|--------------------------------|
D|----------------------------0---|2-----------0-------------------|
A|------------0---2-------2-------|--------------------0-------2---|
E|3-------3-----------------------|--------------------------------|
  ^       ^       ^       ^        ^       ^       ^       ^       


G|--------------------------------|--------------------------------|
D|------------2---3-------3-------|2-------2-------0-------0-------|
A|3-------------------------------|--------------------------------|
E|--------------------------------|--------------------------------|
  ^       ^       ^       ^        ^       ^       ^       ^       


G|--------------------------------|--------------------------------|
D|------------2---3-------3-------|2---2---2-----0-------------0---|
A|3-------3-----------------------|----------------3---3---3-------|
E|--------------------------------|--------------------------------|
  ^       ^       ^       ^        ^       ^       ^       ^       


G|--------------------------------|--------------------------------|
D|----5---5---5-0-4---4---4---4---|2---2---2---2---2---2---0---0---|
A|--------------------------------|--------------------------------|
E|3-------------------------------|--------------------------------|
  ^       ^       ^       ^        ^       ^       ^       ^       


G|--------------------------------|--------------------------------|
D|--------------------------------|--------------------------------|
A|3---3---3---3---2---2---2---2---|0---0---0-----------------------|
E|--------------------------------|--------------------0-------2---|
  ^       ^       ^       ^        ^       ^       ^       ^       


G|--------------------------------|--------------------------------|
D|----------------------------0---|2-------2-------0-------0-------|
A|------------0---2-------2-------|--------------------------------|
E|3-------3-----------------------|--------------------------------|
  ^       ^       ^       ^        ^       ^       ^       ^       


G|--------------------------------|--------------------------------|
D|------------2---3-------3-------|2-------2---2---0-------0---0---|
A|3-------3-----------------------|--------------------------------|
E|--------------------------------|--------------------------------|
  ^       ^       ^       ^        ^       ^       ^       ^       


G|--------------------------------|--------------------------------|
D|--------------------------------|--------------------------------|
A|3---3---3---3---3---3---3---3---|--------------------------------|
E|--------------------------------|3---3---3-------2---2---2-------|
  ^       ^       ^       ^        ^       ^       ^       ^       


G|--------------------------------|--------------------------------|
D|----------------0---0---0-------|--------------------------------|
A|--------------------------------|3-------3-------2-------2-------|
E|0---0---0-----------------------|--------------------------------|


G|--------------------------------|--------------------------------|
D|--------------------------------|--------------------------------|
A|0---0---0-----------------------|--------------------------------|
E|--------------------0---2-------|3-------3---3---2---2---2---2---|
  ^       ^       ^       ^        ^       ^       ^       ^       


G|--------------------------------|--------------------------------|
D|--------------------------------|--------------------------------|
A|--------------------------------|3-------3-----------------------|
E|0------0--0--0--5------5--5--5--|------------0---1---1---1---1---|
  ^       ^       ^       ^        ^       ^       ^       ^       


G|--------------------------------|--------------------------------|
D|--------------------------------|--------------------------------|
A|----------------5---5---5---5---|3---3---3---3---3---3---3---3---|
E|0---0---0---0-------------------|--------------------------------|
  ^       ^       ^       ^        ^       ^       ^       ^       

G|--------------------------------|--------------------------------|
D|--------------------------------|--------------------------------|
A|3---3---3---3-------------------|----------------0---0---0---0---|
E|----------------2---2---2---2---|3---3---3---3-------------------|
  ^       ^       ^       ^        ^       ^       ^       ^  

G|--------------------------------|--------------------------------|
D|----------------0---0---0---0---|1---1---1---1---2---2---2---2---|
A|2---2---2---2-------------------|--------------------------------|
E|--------------------------------|--------------------------------|
  ^       ^       ^       ^        ^       ^       ^       ^  

G|--------------------------------|--------------------------------|
D|2---2---2---2---2---2---2---2---|2---2---2---2---2---2---2---2---|
A|--------------------------------|--------------------------------|
E|--------------------------------|--------------------------------|
  ^       ^       ^       ^        ^       ^       ^       ^  

G|--------------------------------|--------------------------------|
D|2---2---2---2---2---2---2---2---|2---2---2---2---2---2---2---2---|
A|--------------------------------|--------------------------------|
E|--------------------------------|--------------------------------|
  ^       ^       ^       ^        ^       ^       ^       ^  

G|--------------------------------|--------------------------------|
D|2---2---2---2---2---2---2---2---|2---2---2---2---2---2---2---2---|
A|--------------------------------|--------------------------------|
E|--------------------------------|--------------------------------|
  ^       ^       ^       ^        ^       ^       ^       ^  

G|--------------------------------|--------------------------------|
D|2---2---2---2---2---2---2---2---|2---2---2---2---2---2---2---2---|
A|--------------------------------|--------------------------------|
E|--------------------------------|--------------------------------|
  ^       ^       ^       ^        ^       ^       ^       ^  

G|--------------------------------|--------------------------------|
D|2---2-----------------------2---|--------------------------------|
A|--------------------------------|7---7---7---7---7---7---7---7---|
E|--------0---0---0---0---0-------|--------------------------------|
  ^       ^       ^       ^        ^       ^       ^       ^  

G|--------------------------------|----------------------------7---|
D|--------------------------------|--------------------------------|
A|7---7---7---7---7---7---7---7---|7---7---7---7---5-------7-------|
E|--------------------------------|--------------------------------|
  ^       ^       ^       ^        ^       ^       ^       ^  

G|--------------------------------|--------------------------------|
D|--------7---------------7-------|--------------------------------|
A|----------------5---------------|7---6---4---3---2---2---2---2---|
E|--------------------------------|--------------------------------|
  ^       ^       ^       ^        ^       ^       ^       ^  

G|--------------------------------|-----------------|
D|--------------------------------|-----------------|
A|7---6---4---3---2---2---2---2---|2-1-2-1-2-1-2-1--|
E|--------------------------------|-----------------|
  ^       ^       ^       ^        ^       ^       

G|--------------------------------|--------------------------------|
D|--------------------------------|------------------------7---7---|
A|7---6---4---2---7---6---4---2---|7---6---4---2---5---5-----------|
E|--------------------------------|--------------------------------|
  ^       ^       ^       ^        ^       ^       ^       ^  

              G|-----------------||--------------------------------|
              D|--7--7--7-7-7----||------------------------1---4---|
              A|--------------6--||7---6---4---3---2---2-----------|
              E|-----------------||--------------------------------|
                  ^       ^        ^       ^       ^       ^    

G|--------------------------------|----------------5---5-----------|
D|2---1---------------------------|--------2---5-----------5---2---|
A|--------4---3---2---2---2---2---|3---3---------------------------|
E|--------------------------------|--------------------------------|
  ^       ^       ^       ^        ^       ^       ^       ^     

G|--------------------------------|----------------7---7-----------|
D|5---5---2---0---5---5---2---0---|--------4---7-----------7---4---|
A|--------------------------------|5---5---------------------------|
E|--------------------------------|--------------------------------|
  ^       ^       ^       ^        ^       ^       ^       ^    

G|--------------------------------|--------------------------------|
D|7---7---4-------7---7---4-------|--------------------------------|
A|------------7---------------7-7-|7-7-7---5---4---7---7---5---4---|
E|--------------------------------|--------------------------------|
  ^       ^       ^       ^        ^       ^       ^       ^    

G|----------------5---5---5---5---|--------------------------------|
D|--------2---5-------------------|5---5---5---2-------------------|
A|3---3---------------------------|----------------5---5---5---2---|
E|--------------------------------|--------------------------------|
  ^       ^       ^       ^        ^       ^       ^       ^  

G|----------------7---7---7-------|--------------------------------|
D|------------4-7-------------7---|7---7---4-------7---7---4-------|
A|5---5---5-----------------------|------------7---------------7---|
E|--------------------------------|--------------------------------|
  ^       ^       ^       ^        ^       ^       ^       ^  

G|--------------------------------|--------------------------------|
D|--------------------------------|5---5---5---5-0-4---4---4---4-0-|
A|7---7---7---5---3---3---3---5---|--------------------------------|
E|--------------------------------|--------------------------------|
  ^       ^       ^       ^        ^       ^       ^       ^  

G|--------------------------------|--------------------------------|
D|2---2---2---2---0---0---0---0---|--------------------------------|
A|--------------------------------|3-------3-------2-------2-------|
E|--------------------------------|--------------------------------|
  ^       ^       ^       ^        ^       ^       ^       ^  

G|--------------------------------|--------------------------------|
D|--------------------------------|--------------------------------|
A|0-----------0-------------------|--------------------------------|
E|----------------0---0---2-------|3-------3-------2-------2-------|
  ^       ^       ^       ^        ^       ^       ^       ^  

G|--------------------------------|--------------------------------|
D|--------------------------------|--------------------------------|
A|--------------------5---5---5---|3-------3-----------------------|
E|----0---0---0-------------------|------------0---1-------1-------|
  ^       ^       ^       ^        ^       ^       ^       ^  

G|--------------------------------|--------------------------------|
D|--------------------------------|--------------------------------|
A|----------------5---5---5---5---|3---3---3---3---3---3---3---3---|
E|0---0---0---0-------------------|--------------------------------|
  ^       ^       ^       ^        ^       ^       ^       ^  

G|--------------------------------|--------------------------------|
D|--------------------------------|--------------------------------|
A|3---3---3---3-------------------|----------------0---0---0---0---|
E|----------------2---2---2---2---|3---3---3---3-------------------|
  ^       ^       ^       ^        ^       ^       ^       ^  

G|--------------------------------|--------------------------------|
D|--------------------------------|0---0---0---0---1---1---1---1---|
A|2---2---2---2---3---3---3---3---|--------------------------------|
E|--------------------------------|--------------------------------|
  ^       ^       ^       ^        ^       ^       ^       ^  

G|--------------------------------|--------------------------------|
D|2---2---2---2---2---2---2---2---|2---2---2---2---2---2---2---2---|
A|--------------------------------|--------------------------------|
E|--------------------------------|--------------------------------|
  ^       ^       ^       ^        ^       ^       ^       ^  

G|--------------------------------|--------------------------------|
D|2---2---2---2---2---2---2---2---|2---2---2---2---2---2---2---2---|
A|--------------------------------|--------------------------------|
E|--------------------------------|--------------------------------|
  ^       ^       ^       ^        ^       ^       ^       ^  

G|--------------------------------|--------------------------------|
D|2---2---2---2---2---2---2---2---|2---2---2---2---2---2---2---2---|
A|--------------------------------|--------------------------------|
E|--------------------------------|--------------------------------|
  ^       ^       ^       ^        ^       ^       ^       ^  

G|--------------------------------|--------------------------------|
D|2---2---2---2---2---2---2---2---|2---2---2---2---2---2---2---2---|
A|--------------------------------|--------------------------------|
E|--------------------------------|--------------------------------|
  ^       ^       ^       ^        ^       ^       ^       ^  

G|--------------------------------|
D|2---2---2---2---2---2---2---2---|
A|--------------------------------|
E|--------------------------------|
  ^       ^       ^       ^

            
            
Suggest correction
Creating personal tab
Creating personal tab
You can edit any tab online and save it as your Personal.

You can edit, replace or remove any tab part or add personal notes – all changes will be seen only by you.

Personal tabs can be accessed anytime from any device, even offline.
Learn more »
Give kudos to tab author, rate the tab!
1 2 3 4 5
comments
print report bad tab
guest
Wanna post a correction for this tab? Suggest correction