Oops, an error
Loading. Please wait.

Bad To Me tab

9,556 views 15 this week
1 commentread comment
1 2 3 4 5
x 5
add to favorites
×
Save as Personal and add changes to this tab that will be seen only by you. Learn more ›
×
You can save this tab as Personal to edit and correct it or add notes. All changes will be seen only by you. Learn more »
launch autoscroll
font size
0
reset
how to read this tab
guitar tuner
edit
Autoscroll
slow
fast
+/-
esc
set tempo
stop
Hola Amigos,esta es la tablatura de Bad to Me de The Beatles,
Hi Friends, this is the tab for Bad to Me by The Beatles,
La Afinación es un semitono abajo de lo normal (D#, G#, C#, F#, A#, D#)
The song is tuned Half-Step Down of the normal tune (D#, G#, C#, F#, A#, D#)

Disfrutenla
Enjoy it

E                     C#m
If you ever leave me, I'll be sad and blue
Abm			    F#m	             B7
Don't you ever leave me, I'm so in love with you

----------------------------------|
----------------------------------|
--4----2--------------------------|
--------------4-----0------2------|
----------------------------------|
----------------------------------|

The birds in the sky would be sad and lonely
        E	  Abm      C#m
If they knew that I lost my one and only,
    	  A	        B7     E   Abm	B7
They'd be sad if you're bad to me


    E		  Abm	       C#m
The leaves on the trees would be softly sighin’
        E	       Abm            C#m
If they heard from the breeze that you left me crying,
    	  A	       B7     E
They'd be sad don’t be bad to me

                A                         B7
But I know you won't leave me 'cause you told me so,
E		      C#7
I've no intention of letting you go,
A		        B7	     F#m	     B7
Just as long as you let me know, you won't be bad to me


----------------------------------|
----------------------------------|
--4----2--------------------------|
--------------4-----0------2------|
----------------------------------|
----------------------------------|


       E	    Abm	        C#m
So the birds in the sky won't be sad and lonely
            E         Abm     C#m
'Cause they know that I got my one and only
           A		   B7     Bm     C#7
They'll be glad you're not bad to me


           F#m             B7         E	  Abm	F#m	B7
They'll be glad you're not bad to me
      E	  Abm	F#m	B7
To me
      E	  Abm	F#m	B7
To me


Final

--12--------11----------9----7--9--7-----7--12--|
--------------------------------------9---------|
------------------------------------------------|
------------------------------------------------|
------------------------------------------------|
------------------------------------------------|

Repetir hasta que la canción termine.
Repeat until the song finish.

            
            
Suggest correction
Creating personal tab
Creating personal tab
You can edit any tab online and save it as your Personal.

You can edit, replace or remove any tab part or add personal notes – all changes will be seen only by you.

Personal tabs can be accessed anytime from any device, even offline.
Learn more »
comments
print report bad tab
1 comment total.
0 reply
jeffersonbf 68 Feb 28, 2016 04:52 PM

I think the end could be better if:

--12---12-11---11-9-------7--9--7------| repeat and fade out...
-----------------------------------9--7|
---------------------------------------|
---------------------------------------|
---------------------------------------|
---------------------------------------|

guest
You may want to rate the tab now too:
select rating
Wanna post a correction for this tab? Suggest correction