Oops, an error
Loading. Please wait.
We have an official Because tab made by UG professional guitarists. Check out the tab »
×
10,507 views 12 this week
3 commentsread comments
1 2 3 4 5
x 7
add to favorites
×
Save as Personal and add changes to this tab that will be seen only by you. Learn more ›
×
You can save this tab as Personal to edit and correct it or add notes. All changes will be seen only by you. Learn more »
launch autoscroll
font size
0
reset
how to read this tab
guitar tuner
backing track
0:00
0:00
edit
Autoscroll
slow
fast
+/-
esc
set tempo
stop
Author
Tabbers playing skills
advanced +
Band: The Beatles
Song: Because
Album: Abbey Road

(Intro)
   C#m                                 F#m/D#
e|-----------------|-----------------|-----------------|
B|-------5---------|-------5---------|-------4---------|
G|-----6---6-------|-----6---6-------|-----6---6-------|
D|---6-------6---6-|---6-------6---6-|---7-------7---4-|
A|-4-----------7---|-4-----------7---|-6-----------7---|       
E|-----------------|-----------------|-----------------|
   G#                A                 C#m
e|-----------------|-----------------|-----------------|
B|-------4---------|-------5---------|-------5---------|
G|-----5---5-------|-----6---6-------|-----6---6-------|
D|---6-------6---6-|---7-------7---7-|---6-------6---6-|
A|-6---------------|-------------7---|-4-----------4---|
E|-------------4---|-5---------------|-----------------|
   A7                A7add13           D
e|-----------------|-----------------|-------2---------|
B|-------8---------|-------7---------|-----3---3-------|
G|-----6---6-------|-----6-----------|---2-------2---2-|
D|---5-------5---5-|---5-------------|-0-----------4---|
A|-0-----------7---|-0---------------|-----------------|
E|-----------------|-----------------|-----------------|
           Dm
e|-------2-1-------|
B|-----3-----------|
G|---2-------------|
D|-0---------------|
A|-----------------|
E|-----------------|

(Verse 1)
   C#m                                 F#m/D#
e|-----------------|-----------------|-----------------|
B|-------5---------|-------5---------|-------4---------|
G|-----6---6-------|-----6---6-------|-----6---6-------|
D|---6-------6---6-|---6-------6---6-|---7-------7---4-|
A|-4-----------7---|-4-----------7---|-6-----------7---|       
E|-----------------|-----------------|-----------------|
   G#                A                 C#m
e|-----------------|-----------------|-----------------|
B|-------4---------|-------5---------|-------5---------|
G|-----5---5-------|-----6---6-------|-----6---6-------|
D|---6-------6---6-|---7-------7---7-|---6-------6---6-|
A|-6---------------|-------------7---|-4-----------4---|
E|-------------4---|-5---------------|-----------------|
   A7                A7add13           D
e|-----------------|-----------------|-------2---------|
B|-------8---------|-------7---------|-----3---3-------|
G|-----6---6-------|-----6-----------|---2-------2---2-|
D|---5-------5---5-|---5-------------|-0-----------4---|
A|-0-----------7---|-0---------------|-----------------|
E|-----------------|-----------------|-----------------|
           Dm
e|-------2-1-------|
B|-----3-----------|
G|---2-------------|
D|-0---------------|
A|-----------------|
E|-----------------|

(Verse 2)
   C#m                                 F#m/D#
e|-----------------|-----------------|-----------------|
B|-------5---------|-------5---------|-------4---------|
G|-----6---6-------|-----6---6-------|-----6---6-------|
D|---6-------6---6-|---6-------6---6-|---7-------7---4-|
A|-4-----------7---|-4-----------7---|-6-----------7---|       
E|-----------------|-----------------|-----------------|
   G#                A                 C#m
e|-----------------|-----------------|-----------------|
B|-------4---------|-------5---------|-------5---------|
G|-----5---5-------|-----6---6-------|-----6---6-------|
D|---6-------6---6-|---7-------7---7-|---6-------6---6-|
A|-6---------------|-------------7---|-4-----------4---|
E|-------------4---|-5---------------|-----------------|
   A7                A7add13           D
e|-----------------|-----------------|-------2---------|
B|-------8---------|-------7---------|-----3---3-------|
G|-----6---6-------|-----6-----------|---2-------2---2-|
D|---5-------5---5-|---5-------------|-0-----------4---|
A|-0-----------7---|-0---------------|-----------------|
E|-----------------|-----------------|-----------------|
           Dm
e|-------2-1-------|
B|-----3-----------|
G|---2-------------|
D|-0---------------|
A|-----------------|
E|-----------------|

(Bridge)
   F#                                  G#                G#7
e|-----------------|-----------------|-----------------|---------4-|
B|-------2---------|-------2---------|-------4---------|-------4---|
G|-----3---3-------|-----3---3-------|-----5---5-------|-----5-----|
D|---4-------4---4-|---4-------4---4-|---6-------6-4-6-|---4-------|
A|-------------4---|-------------4---|-----------------|-----------|
E|-2---------------|-2---------------|-4---------------|-4---------|

(Verse 3)
   C#m                                 F#m/D#
e|-----------------|-----------------|-----------------|
B|-------5---------|-------5---------|-------4---------|
G|-----6---6-------|-----6---6-------|-----6---6-------|
D|---6-------6---6-|---6-------6---6-|---7-------7---4-|
A|-4-----------7---|-4-----------7---|-6-----------7---|       
E|-----------------|-----------------|-----------------|
   G#                A                 C#m
e|-----------------|-----------------|-----------------|
B|-------4---------|-------5---------|-------5---------|
G|-----5---5-------|-----6---6-------|-----6---6-------|
D|---6-------6---6-|---7-------7---7-|---6-------6---6-|
A|-6---------------|-------------7---|-4-----------4---|
E|-------------4---|-5---------------|-----------------|
   A7                A7add13           D
e|-----------------|-----------------|-------2---------|
B|-------8---------|-------7---------|-----3---3-------|
G|-----6---6-------|-----6-----------|---2-------2---2-|
D|---5-------5---5-|---5-------------|-0-----------4---|
A|-0-----------7---|-0---------------|-----------------|
E|-----------------|-----------------|-----------------|
           Dm
e|-------2-1-------|
B|-----3-----------|
G|---2-------------|
D|-0---------------|
A|-----------------|
E|-----------------|

(Instrumental Break)
   C#m                                 F#m/D#
e|-----------------|-----------------|-----------------|
B|-------5---------|-------5---------|-------4---------|
G|-----6---6-------|-----6---6-------|-----6---6-------|
D|---6-------6---6-|---6-------6---6-|---7-------7---4-|
A|-4-----------7---|-4-----------7---|-6-----------7---|       
E|-----------------|-----------------|-----------------|
   G#                A                 C#m
e|-----------------|-----------------|-----------------|
B|-------4---------|-------5---------|-------5---------|
G|-----5---5-------|-----6---6-------|-----6---6-------|
D|---6-------6---6-|---7-------7---7-|---6-------6---6-|
A|-6---------------|-------------7---|-4-----------4---|
E|-------------4---|-5---------------|-----------------|
   A7                A7add13           D
e|-----------------|-----------------|-------2---------|
B|-------8---------|-------7---------|-----3---3-------|
G|-----6---6-------|-----6-----------|---2-------2---2-|
D|---5-------5---5-|---5-------------|-0-----------4---|
A|-0-----------7---|-0---------------|-----------------|
E|-----------------|-----------------|-----------------|
           Dm
e|-------2-1-------|
B|-----3-----------|
G|---2-------------|
D|-0---------------|
A|-----------------|
E|-----------------|

Lyrics:

(Verse 1)
Ahh…
Because the world is round, it turns me on…
Because the world is round…

(Verse 2)
Ahh…
Because the wind is high, it blows my mind…
Because the wind is high…

(Bridge)
Ah, Love is old, love is new
Love is all, love is you

(Verse 3)
Ahh…
Because the sky is blue, it makes me cry…
Because the sky is blue…

(Instrumental break = 10 bars) 

THE END

            
            
Suggest correction
Creating personal tab
Creating personal tab
You can edit any tab online and save it as your Personal.

You can edit, replace or remove any tab part or add personal notes – all changes will be seen only by you.

Personal tabs can be accessed anytime from any device, even offline.
Learn more »
comments
print report bad tab
3 comments total.
0 reply
LedDaveZeppelin 7,951 Oct 05, 2007 09:54 PM

good tab man. i love this beatles song.

0 reply
OliverB515 10 Jul 13, 2010 01:11 PM

An A7add13 is called an A13.
Anyways, good tab.

0 reply
OliverB515 10 Jul 13, 2010 01:13 PM

Oops, never mind, I see why you called it A7add13, my bad.

guest
You may want to rate the tab now too:
select rating
Wanna post a correction for this tab? Suggest correction