Oops, an error
Loading. Please wait.

Being For The Benefit Of Mr Kite bass

version 3
version 3

Whole song

Interactive

1,340 views 21 this week
no commentswrite comment
1 2 3 4 5
x 4
add to favorites
×
Save as Personal and add changes to this tab that will be seen only by you. Learn more ›
×
You can save this tab as Personal to edit and correct it or add notes. All changes will be seen only by you. Learn more »
launch autoscroll
font size
0
reset
guitar tuner
backing track
0:00
0:00
edit
Autoscroll
slow
fast
+/-
esc
set tempo
stop
Author
Difficulty
         --------------------------------------------------------

             THE BEATLES - BEING FOR THE BENEFIT OF MR. KITE!
                               John Lennon
           From SGT. PEPPER’S LONELY HEARTS CLUB BAND, released
                            on June 1st, 1967

         --------------------------------------------------------





      INTRO

    G|-------------------------------|-------------------------------|
    D|8----8--8-------8----8--8--\---|7-------7----7--7-------7--\---|
    A|-------------------------------|-------------------------------|
    E|-------------------------------|-------------------------------|



    G|-------------------------------|
    D|-------------------------------|
    A|5------------------------------|
    E|----------------3--------------|




      VERSE

    G|-------------------------------|-------------------------------|
    D|-------------------------------|------------------------3------|
    A|3------------------------------|1------------3--5--------------|
    E|----------------3--------------|-------------------------------|



    G|-------------------------------|-------------------------------|
    D|5-------5-------5--------------|------------------------5------|
    A|---------------------5-------5-|-----0--2----3--5--------------|
    E|------------------------7------|3------------------------------|



    G|-------------------------------|-------------------------------|
    D|-----------------------5----5--|------------------------3----3-|
    A|3-------5-------6--------------|1-------3-------5--------------|
    E|-------------------------------|-------------------------------|



    G|-------------------------------|-------------------------------|
    D|7-------7-------7--------------|------------------------5----7-|
    A|---------------------7-------7-|5-------7-------8--------------|
    E|------------------------9------|-------------------------------|



    G|--------5----7--9-------7----6-|7-------5----------------------|
    D|8------------------------------|----------------8-------7------|
    A|-------------------------------|-------------------------------|
    E|-------------------------------|-------------------------------|



    G|--------5----7--9-------7----6-|7-------5----------------------|
    D|8------------------------------|----------------8-------7------|
    A|-------------------------------|-------------------------------|
    E|-------------------------------|-------------------------------|



    G|--------7----------------------|-------------------------------|
    D|8------------8--7-------7--\---|-------------------------------|
    A|-------------------------------|5------------------------------|
    E|-------------------------------|----------------3--------------|




      VERSE

    G|-------------------------------|-------------------------------|
    D|-------------------------------|------------------------3------|
    A|3------------------------------|1------------3--5--------------|
    E|----------------3--------------|-------------------------------|



    G|-------------------------------|-------------------------------|
    D|5------------0--5--------------|------------------------5------|
    A|---------------------5-------5-|-----0--2----3--5--------------|
    E|------------------------7------|3------------------------------|



    G|-------------------------------|-------------------------------|
    D|-----------------------5----5--|------------------------3----3-|
    A|3-------5-------6--------------|1-------3-------5--------------|
    E|-------------------------------|-------------------------------|



    G|-------------------------------|-------------------------------|
    D|7-------7-------7--------------|------------------------5----7-|
    A|---------------------7-------7-|5-------7-------8--------------|
    E|------------------------9------|-------------------------------|



    G|--------5----7--9-------7----6-|7-------5----------------------|
    D|8------------------------------|----------------8-------7------|
    A|-------------------------------|-------------------------------|
    E|-------------------------------|-------------------------------|



    G|--------5----7--9-------7----6-|
    D|8------------------------------|
    A|-------------------------------|
    E|-------------------------------|




            INTERLUDE

          G|-----------------------|-----------------------|
          D|0-------2---3-------5--|--------0---2-------5--|
          A|-----------------------|3----------------------|
          E|-----------------------|-----------------------|



          G|-----------------------|-----------------------|
          D|7-----------7-------7--|----------------0---2--|
          A|--------7---------7----|0-----0-2-0-4----------|
          E|-----------------------|-----------------------|



          G|----------------0---2--|----------------0---2--|
          D|0-------2---3----------|--------0---2----------|
          A|-----------------------|3----------------------|
          E|-----------------------|-----------------------|



          G|4-----------4-------4--|----------------2---4--|
          D|--------4---------4---4|2-------4---5----------|
          A|-----------------------|-----------------------|
          E|-----------------------|-----------------------|



          G|5---5---5---4---4\-----|----------------2---4--|
          D|--------------------1--|2-------4---5----------|
          A|-----------------------|-----------------------|
          E|-----------------------|-----------------------|



          G|5-----7\5---4----------|-----------------------|
          D|--------------------1--|2----------------------|
          A|-----------------------|-----------------------|
          E|-----------------------|-----------------------|


                   x  x  x  x   x  x       X
                 G|-------------------------------|
                 D|-------------------------------|
                 A|-------------------------------|
                 E|-------------------------------|




      VERSE

    G|-------------------------------|-------------------------------|
    D|-------------------------------|------------------------3------|
    A|3------------------------------|1------------3--5--------------|
    E|----------------3--------------|-------------------------------|



    G|-------------------------------|-------------------------------|
    D|5-------5-------5--------------|---------------------5---------|
    A|---------------------5-------5-|-----0--2----3--5--------------|
    E|------------------------7------|3------------------------------|



    G|-------------------------------|-------------------------------|
    D|-----------------------5----5--|------------------------3----3-|
    A|3-------5-------6--------------|1-------3-------5--------------|
    E|-------------------------------|-------------------------------|



    G|-------------------------------|-------------------------------|
    D|6-------7-------7--------------|------------------------5----7-|
    A|---------------------7-------7-|5-------7-------8--------------|
    E|------------------------9------|-------------------------------|



    G|--------5----7--9-------7----6-|7-------5----------------------|
    D|8------------------------------|----------------8-------7------|
    A|-------------------------------|-------------------------------|
    E|-------------------------------|-------------------------------|



    G|--------5----7--9-------7----6-|7-------5----------------------|
    D|8------------------------------|----------------8-------7------|
    A|-------------------------------|-------------------------------|
    E|-------------------------------|-------------------------------|



    G|--------5----7-----------------|
    D|8---------------7-------7--\---|
    A|-------------------------------|
    E|-------------------------------|




      OUTRO

    G|-------------------------------|-------------------------------|
    D|0------------2--3-------5------|-------------0--2-------5------|
    A|-------------------------------|3------------------------------|
    E|-------------------------------|-------------------------------|



    G|-------------------------------|------------------------2------|
    D|7-------7-------7--------------|-------------0--2--------------|
    A|---------------------7-------7-|0----2--4----------------------|
    E|------------------------9------|-------------------------------|



    G|-------------------------------|------------------------0----2-|
    D|0-------2-------3-------5------|--------0-------2--------------|
    A|-------------------------------|3------------------------------|
    E|-------------------------------|-------------------------------|



    G|4-------4-------4--------------|------------------------2----4-|
    D|---------------------4-------4-|2-------4-------5--------------|
    A|------------------------6------|-------------------------------|
    E|-------------------------------|-------------------------------|



    G|5-------7--\-5--4-------4-\----|------------------------2----4-|
    D|-------------------------------|--------4-------5--------------|
    A|-----------------------------6-|7------------------------------|
    E|-------------------------------|-------------------------------|



    G|5-------5-------4--------------|------------------------2----4-|
    D|-------------------------------|-------------4--5--------------|
    A|------------------------6------|7------------------------------|
    E|-------------------------------|-------------------------------|



    G|5-------5-------4--------------|-------------------------------|
    D|-------------------------------|-------------------------------|
    A|------------------------6------|7---------------5--------------|
    E|-------------------------------|-------------------------------|



    G|-------------------------------|-------------------------------|
    D|-------------------------------|-------------------------------|
    A|3---------------2--------------|-------------------------------|
    E|-------------------------------|0------------------------------|

            
            
Suggest correction
Creating personal tab
Creating personal tab
You can edit any tab online and save it as your Personal.

You can edit, replace or remove any tab part or add personal notes – all changes will be seen only by you.

Personal tabs can be accessed anytime from any device, even offline.
Learn more »
comments
print report bad tab
guest
You may want to rate the tab now too:
select rating
Wanna post a correction for this tab? Suggest correction