Oops, an error
Loading. Please wait.
We have an official Come Together tab made by UG professional guitarists. Check out the tab »
×

Come Together solo tab

version 1
version 1

Solo

Whole song

127,968 views 204 this week
2 commentsread comments
1 2 3 4 5
x 18
add to favorites
×
Save as Personal and add changes to this tab that will be seen only by you. Learn more ›
×
You can save this tab as Personal to edit and correct it or add notes. All changes will be seen only by you. Learn more »
launch autoscroll
font size
0
reset
how to read this tab
guitar tuner
backing track
0:00
0:00
edit
Autoscroll
slow
fast
+/-
esc
set tempo
stop
Author
Unregistered
Come Together

Beatles

by Brian S.


[Verse]

(Bass)

G|-----------------------------------------------------|
D|-----------------------------------------------------|
A|--5--5~~--0~h5~8~~-5~--3~~--5--5~~--0~h5~8~~-5~--3~~-|
E|-----------------------------------------------------|

[Chorus Fill]

G|--------------------------------------|
D|--------------------------------------|
A|--5--5~~--0~h5~8~~--(8)h10-(8)h10-8~/-|
E|--------------------------------------|


[Chorus]

e|-------------------------------------------------|
B|-------------------------------------------------|
G|------------4-4-4-4-4-4-4-4----------------------|
D|------------4-4-4-4-4-4-4-4-5-5-5-5---5~/7-------|
A|------------2-2-2-2-2-2-2-2-5-5-5-5---5~/7-------|
E|----------------------------3-3-3-3~--3~/5-------|
  Come together                             Over me.


[Solo]

 (2:02)
e|----------------------------------------|
B|----------------------------------------|
G|-10-10-10-10-10-10-10-10-10--7~--5--7---|
D|-10-10-10-10-10-10-10-10-10--7~--5--7---| 4x
A|----------------------------------------|
E|----------------------------------------|


(2:13)

guitar 1
    ^
e|--15b~~------15b~--15b-r15-13--15b~~------------|
B|------------------------------------------------|
G|--12b~~------12b~--12b-r12-10--12b~~------------|
D|---^--------------------------------------------|
A|-guitar-2---------------------------------------|
E|------------------------------------------------|

(2:19)                             (2:23)

e|--15b~~--15b~--15b-r15--13--10~~----10b~~-10b-r10-|
B|--------------------------------------------------|
G|--12b~~--12b~--12b-r12--10-----------7b~~--7b-r7--|
D|----------------------------12~~------------------|
A|--------------------------------------------------|
E|--------------------------------------------------|

e|-8-10--15b~~~--|
B|--------8b~~~--|
G|-5-------------|
D|---7-----------|
A|---------------|
E|---------------|

(3:11) (guitar 2 out)

e|--------------|-----13b--13b-r13-10-----------|
B|--13b~~~~~----|---------------------13b~~~~~~-|
G|--------------|-------------------------------|
D|--------------|-------------------------------|
A|--------------|-------------------------------|
E|--------------|-------------------------------|

e|--------------------------|--10--13b-r13-10---------|
B|-----------------13b~~~---|-----------------13b~~~~-|
G|--10--12b-r12-10----------|-------------------------|
D|--------------------------|-------------------------|
A|--------------------------|-------------------------|
E|--------------------------|-------------------------|

e|-----------------15b~~~--|--15b--15b-r15--13--15b~~~~-|
B|-10--13b-r13-10----------|----------------------------|
G|-------------------------|----------------------------|
D|-------------------------|----------------------------|
A|-------------------------|----------------------------|
E|-------------------------|----------------------------|

        2x
e|--17--20b--r20--17--20b~~~~-|------15b--r15-13-15b~~~-|
B|----------------------------|---15--------------------|
G|----------------------------|-------------------------|
D|----------------------------|-------------------------|
A|----------------------------|-------------------------|
E|----------------------------|-------------------------|

                              2x (second time fade)
e|--------------------------|-13b--13b-r13-10---------|
B|------------------13b~~~~-|-----------------13b~~~~-|
G|--10--12b--r12-10---------|-------------------------|
D|--------------------------|-------------------------|
A|--------------------------|-------------------------|
E|--------------------------|-------------------------|



************************************

| r  Release
| b  Bend
| ~  Vibrato
| b  bend
| r  release

************************************

            
            
Suggest correction
Creating personal tab
Creating personal tab
You can edit any tab online and save it as your Personal.

You can edit, replace or remove any tab part or add personal notes – all changes will be seen only by you.

Personal tabs can be accessed anytime from any device, even offline.
Learn more »
comments
print report bad tab
2 comments total.
+1 reply
doompers7491 301 Oct 31, 2008 09:51 AM

good tab. it really helped me out. now my band can finally play the whole song

0 reply
epiphonegibson 10 Jun 26, 2009 11:19 AM

yah this tab is not bad

guest
Wanna post a correction for this tab? Suggest correction