Oops, an error
Loading. Please wait.
We have an official Day Tripper tab made by UG professional guitarists. Check out the tab »
×
42,240 views 3 this week
5 commentsread comments
1 2 3 4 5
x 41
add to favorites
×
Save as Personal and add changes to this tab that will be seen only by you. Learn more ›
×
You can save this tab as Personal to edit and correct it or add notes. All changes will be seen only by you. Learn more »
launch autoscroll
font size
0
reset
how to read this tab
guitar tuner
backing track
0:00
0:00
edit
Autoscroll
slow
fast
+/-
esc
set tempo
stop
Author
Unregistered
This is the opening riff to one of the beatles greatest song (come on they are all great)
There is a key change make sure you get it

E--------------------------|
B--------------------------|
G--------------------------|
D----------2-0--4---0h2----|
A--------2-----2--2--------|
E--0-3-4-------------------|

this is when jon switches up to the higer riff played on A


E-------------------------|
B-------------------------|
G---------2-0--4---0h2----|
D-------2-----2--2--------|
A-0-3-4-------------------|
E-------------------------|          then it goes back

Well i know the chords later on but i just gave you the entire song (for the most part)
so wait fo my next beatles post
And please look for the band "Blind" on Napster soon we will be coming out with a CD soon
Blind's "The Peoples Republic Of China"
Dan
The lead guitarist for Blind

            
            
Suggest correction
Creating personal tab
Creating personal tab
You can edit any tab online and save it as your Personal.

You can edit, replace or remove any tab part or add personal notes – all changes will be seen only by you.

Personal tabs can be accessed anytime from any device, even offline.
Learn more »
comments
print report bad tab
5 comments total. Showing first comments. show 1 bad comment
+1 reply
ghislain 110 Nov 10, 2003 07:00 PM

good rhytme tab, except there are 3 riffs in the song, not 2.
i'm sure of it. but you defenetly got these 2 right.
cant tell you what the 3rd riff is thow.
i still haven't figured it out myself.
keep up the good work

+1 reply
louis p 73 Oct 02, 2005 02:18 AM

crazysnake, you suck, go listen to your crappy ska records or whatever you like.

the begining to the solo is this, i cant work out the rest:

----------------------------
----------------------------
----------4------6-----4--
--------4---7-4---4-7----
---4-5---------------------
-7--------------------------

guest
Wanna post a correction for this tab? Suggest correction