Oops, an error
Loading. Please wait.
We have an official Doctor Robert tab made by UG professional guitarists. Check out the tab »
×
6,897 views 1 this week
no commentswrite comment
1 2 3 4 5
1 last vote to show rating
add to favorites
×
Save as Personal and add changes to this tab that will be seen only by you. Learn more ›
×
You can save this tab as Personal to edit and correct it or add notes. All changes will be seen only by you. Learn more »
launch autoscroll
font size
0
reset
how to read this tab
guitar tuner
edit
Autoscroll
slow
fast
+/-
esc
set tempo
stop
Author
 A
e|----------------------------------|--------------------------------|
B|--------2------------3------------|--------2-------------3---------|
G|--------2------------2-------0----|--------0---0-H-2-----2----0----|
D|--------2------------2------------|--------2-------------2---------|
A|0---------------0-----------------|0---------------0---------------|
E|----------------------------------|--------------------------------|

e|----------------------------------|--------------------------------|
B|--------2------------3------------|--------2-------------3---------|
G|--------0---0-H-2----2-------0----|--------0---0-H-2-----2----0----|
D|--------2------------2------------|--------2-------------2---------|
A|0---------------0-----------------|0---------------0---------------|
E|----------------------------------|--------------------------------|


  F#
e|----------------------------------|--------------------------------|
B|----------------------------------|--------------------------------|
G|--------3------------4------------|--------3-------------4---------|
D|--------4------------4-------2----|--------2---2-H-4-----4-----2---|
A|----------------------------------|--------------------------------|
E|2----------------2----------------|2---------------2---------------|

e|----------------------------------|--------------------------------|
B|----------------------------------|--------------------------------|
G|--------3------------4------------|--------3-------------4---------|
D|--------2---2-H-4----4-------2----|--------2---2-H-4-----4------2--|
A|----------------------------------|--------------------------------|
E|2---------------2-----------------|2---------------2---------------|


 E                                  F#
e|----------------------------------|--------------------------------|
B|----------------------------------|--------------------------------|
G|--------1------------2------------|--------3-------------4---------|
D|--------2------------2------------|--------4-------------4---------|
A|----------------------------------|--------------------------------|
E|0---------------0-----------------|2---------------2---------------|


 B
e|----------------------------------|--------------------------------|
B|---------------------5------------|----------------------5---------|
G|--------4------------4-------2----|--------2---2-H-4-----4---------|
D|--------4--------------------4----|--------4---4-------------------|
A|2---------------2-----------------|2---------------2---------------|
E|----------------------------------|--------------------------------|
                                                               B chord

  Solo Guitar 1

  *
  B
e|--------2-------------------------|----------------------------------|
B|----------------5----4-------4-/-|5---------------5----4-------------|
G|4---------------------------------|--------4-------------------------|
D|----------------------------------|----------------------------------|
A|----------------------------------|----------------------------------|
E|----------------------------------|----------------------------------|

  Middle eight (Well well well...)

  **
  B
e|2---------------------------------|--------------------------------|
B|----------------------------------|--------------------------------|
G|----------------------------------|4---------------4-------------4-|
D|----------------------------------|--------------------------------|
A|----------------------------------|--------------------------------|
E|----------------------------------|--------------------------------|


  B
e|----------------------------------|--------------------------------|
B|----------------------------------|--------------------------------|
G|4---------------4---------------4-|4---------------4-------------4-|
D|----------------------------------|--------------------------------|
A|----------------------------------|--------------------------------|
E|----------------------------------|--------------------------------|

  ................................3 Times............................

 Guitar riff 2
  ***

  A
e|--------5-------------------------|-----------------------------5----|
B|--------------------2--/--3-------|-------3----2-----2--/--3---------|
G|----------------------------------|----------------------------------|
D|----------------------------------|----------------------------------|
A|----------------------------------|----------------------------------|
E|----------------------------------|----------------------------------|

e|----------------------------------|--------------------------------|
B|----------------------------------|--------------------------------|
G|----------------------------------|----------------------------1-/-|
D|----------------------------------|--------------------------------|
A|----------------------------------|--------------------------------|
E|----------------------------------|--------------------------------|

e|----5-------5---------------------|----5------------5----------------|
B|----------------3H5P3---------3--|2-------2--/--3------3---5---------|
G|2-------2-------------------------|----------------------------------|
D|----------------------------------|----------------------------------|
A|----------------------------------|----------------------------------|
E|----------------------------------|----------------------------------|

e|----------------------------------|--------------------------------|
B|----------------------------------|--------------------------------|
G|----------------------------------|----------------------------1-/-|
D|----------------------------------|--------------------------------|
A|----------------------------------|--------------------------------|
E|----------------------------------|--------------------------------|

e|-------5--------------------------|5---------------------------------|
B|---2------------2--/--3-----------|--------3----2---2--/--3----------|
G|2---------------------------------|----------------------------------|
D|----------------------------------|----------------------------------|
A|----------------------------------|----------------------------------|
E|----------------------------------|----------------------------------|


e|-------2--------------------------|--------------------------------|
B|----------------------------------|--------------------------------|
G|----------------------------------|----------------------------2-/-|
D|----------------------------------|--------------------------------|
A|----------------------------------|--------------------------------|
E|----------------------------------|--------------------------------|

e|--------2-------------------------|--------------------------------|
B|----------------------------------|--------------------------------|
G|3---------------------------------|----------------------------2-/-|
D|----------------------------------|--------------------------------|
A|----------------------------------|--------------------------------|
E|----------------------------------|--------------------------------|

e|--------2-------------------------|--------------------------------|
B|----------------------------------|--------------------------------|
G|3---------------------------------|----------------------------3-/-|
D|----------------------------------|--------------------------------|
A|----------------------------------|--------------------------------|
E|----------------------------------|--------------------------------|

e|--------0-------------------------|--------2-----------------------|
B|----------------------------------|--------------------------------|
G|4-----------------------------2-/-|3---------------------------3-/-|
D|----------------------------------|--------------------------------|
A|----------------------------------|--------------------------------|
E|----------------------------------|--------------------------------|

e|--------2-------------------------|0---------------------------------|
B|--------------------2--/--3-------|--------------------0----5--4-----|
G|4---------------------------------|4------------------------4--------|
D|----------------------------------|----------------------------------|
A|----------------------------------|----------------------------------|
E|----------------------------------|----------------------------------|


e|----------------------------------|--------------------------------|
B|----------------------------------|--------------------------------|
G|----------------------------------|4---------------4-------------4-|
D|----------------------------------|--------------------------------|
A|----------------------------------|--------------------------------|
E|----------------------------------|--------------------------------|

e|----------------------------------|--------------------------------|
B|----------------------------------|--------------------------------|
G|4--------------4----------------4-|4---------------4-------------4-|
D|----------------------------------|--------------------------------|
A|----------------------------------|--------------------------------|
E|----------------------------------|--------------------------------|

  ...............................3 Times.............................


e|----------------------------------|--------------------------------|
B|--------2-----------2--/--3-------|3-----------------------3-------|
G|2---------------------------------|--------------------------------|
D|----------------------------------|--------------------------------|
A|----------------------------------|--------------------------------|
E|----------------------------------|--------------------------------|

e|----------------------------------|--------------------------------|
B|2-------------------2--/--3-------|------------5--P--3----3--P--2--|
G|----------------------------------|--------------------------------|
D|----------------------------------|--------------------------------|
A|----------------------------------|--------------------------------|
E|----------------------------------|--------------------------------|

e|--------5-------------------------|5-------------------------------|
B|2-------------------2--/--3-------|------------2-H-3----3--3-P-2---|
G|----------------------------------|---------------------2----------|
D|----------------------------------|--------------------------------|
A|----------------------------------|--------------------------------|
E|----------------------------------|--------------------------------|


e|-----------5----------------------|-----5-----------5--------------|
B|----2-H-3-----3-P-2-------------2-H-3-------3-H-2-----------2-H-3--|
G|----------------------------------|--------------------------------|
D|----------------------------------|--------------------------------|
A|----------------------------------|--------------------------------|
E|----------------------------------|--------------------------------|

e|----------------------------------|----------------5---------------|
B|----------2--H--3--------3--P--2--|---2----------------------------|
G|----------------------------------|--------------------------------|
D|----------------------------------|--------------------------------|
A|----------------------------------|--------------------------------|
E|----------------------------------|--------------------------------|

e|2-------2----------------2--------|----2----------2----------------|
B|2-------2----------------2--H--4--|----4--P--2----2-------2--------|
G|3-------3----------------3--------|----3---------------------------|
D|2-------2----------------2--------|----2---------------------------|
A|4-------4----------------4--------|----4---------------------------|
E|2-------2----------------2--------|----2---------------------------|

e|----7---------------7----7--------|--------------------------------|
B|4-------4---H---5---5----5--P-4---|--------------------------------|
G|4-------4-------4---4----4--------|--------------------------------|
D|4-------4-------4---4----4--------|--------------------------------|
A|----------------------------------|--------------------------------|
E|----------------------------------|--------------------------------|

            
            
Suggest correction
Creating personal tab
Creating personal tab
You can edit any tab online and save it as your Personal.

You can edit, replace or remove any tab part or add personal notes – all changes will be seen only by you.

Personal tabs can be accessed anytime from any device, even offline.
Learn more »
Give kudos to tab author, rate the tab!
1 2 3 4 5
comments
print report bad tab
guest
You may want to rate the tab now too:
select rating
Wanna post a correction for this tab? Suggest correction