Oops, an error
Loading. Please wait.
We have an official Dont Let Me Down tab made by UG professional guitarists. Check out the tab »
×
76,372 views 204 this week
4 commentsread comments
1 2 3 4 5
x 20
add to favorites
×
Save as Personal and add changes to this tab that will be seen only by you. Learn more ›
×
You can save this tab as Personal to edit and correct it or add notes. All changes will be seen only by you. Learn more »
launch autoscroll
font size
0
reset
guitar tuner
backing track
0:00
0:00
edit
Autoscroll
slow
fast
+/-
esc
set tempo
stop
   -------------------------------------------------------------

                  THE BEATLES - DON'T LET ME DOWN
                            John Lennon
     Released as B side of GET BACK single on April 11th, 1969

   -------------------------------------------------------------







  Don't let me down, don't let me down
  Don't let me down, don't let me down

  Nobody ever loved me like she does
  Oh, she does, yeah, she does
  And if somebody loved me like she do me
  Oh, she do me, yes, she does

  Don't let me down, don't let me down
  Don't let me down, don't let me down

  I'm in love for the first time
  Don't you know it's gonna last
  It's a love that lasts forever
  It's a love that had no past

  Don't let me down, don't let me down
  Don't let me down, don't let me down

  And from the first time that she really done me
  Oh, she done me, she done me good
  I guess nobody ever really done me
  Oh, she done me, she done me good

  Don't let me down, hey don't let me down
  Heeeee, don't let me down






    INTRO

  G|9------------------------------|-------------------------------|
  D|9------------------------------|--------14\--------------------|
  A|-------------------------------|-------------------------------|
  E|-------------------------------|-------------------------------|
                                                    Don't let me




    CHORUS

  G|----------------1111111111-----|-------------------------------|
  D|------------11-------------11P9|----------------9--------------|
  A|9------------------------------|9---9-------9------------------|
  E|-------------------------------|----------------------------7--|
    down                                            don't let me




  G|----------------9-9-9-9-9------|----------------9--------------|
  D|------------9---------------9\7|------------9---------------9--|
  A|7------------------------------|7------------------------------|
  E|-------------------------------|-------------------------------|
    down                                            don't let me




  G|----------------1111111111-----|-------------------------------|
  D|------------11-------------11\9|-----------11\9----------------|
  A|9------------------------------|9------------------------------|
  E|-------------------------------|----------------7-----------7--|
    down                                            don't let me




  G|----------------9-9-9-9-9------|
  D|------------9---------------9P7|
  A|7------------------------------|
  E|-------------------------------|
    down




    VERSE

  G|---------------------------------------|
  D|---------------------------------------|
  A|7--------------------------------------|
  E|---------------------------------------|
        Nobody      ever    loved   like
                                me      she




  G|-------------------------------|-------------------------------|
  D|------------11-----------------|------------11-----------------|
  A|9---------------------------8--|9---------------------------6--|
  E|------------------------9------|------------------------7------|
    does                    oh  she                         yes she
                                  does                            does




  G|-------------------------------|
  D|------------9------------------|
  A|7---------------------------6--|
  E|------------------------7------|





  G|---------------------------------------|
  D|---------------------------------------|
  A|7--------------------------------------|
  E|---------------------------------------|
        And if  somebody    loved   like
                                me      she




  G|-------------------------------|-------------------------------|
  D|------------11-----------------|------------11-----------------|
  A|9---------------------------8--|9------------------------------|
  E|------------------------9------|------------------------7------|
    do  me                  oh  she   me                    yes she
                                  do                              does




  G|-------------------------------|------9-9----------------------|
  D|------------9------------------|-------------------------------|
  A|7---------------------------6--|7------------------------------|
  E|------------------------7------|-------------------------------|
                                                    Don't let me




    CHORUS

  G|----------------1111111111-----|-------------------------------|
  D|------------11-------------11\9|-----------11\9----------------|
  A|9------------------------------|9---9--------------------------|
  E|-------------------------------|----------------7-----------7--|
    down                                            don't let me




  G|----------------9-9-9-9-9-6----|----------------9--------------|
  D|------------9---------------9-6|------------9------------------|
  A|7------------------------------|7---7-----------------------7--|
  E|-------------------------------|-------------------------------|
    down                                            don't let me




  G|----------------1111111111-----|--------------9----------------|
  D|------------11-------------9H11|---------9H11---9-----9--------|
  A|9------------------------------|9---9--------------------------|
  E|-------------------------------|----------------------------7--|
    down                                            don't let me




  G|----------------9-9-9-9--------|-------------------------------|
  D|------------9-----------9-9-9--|-------------------------------|
  A|7-----------------------7------|7------------------------------|
  E|-------------------------------|-------------------------------|
    down                                    I'm in  love    for the
                                                                  first




    BRIDGE

  G|--------9---8-------9---6------|9-----------9-------9-------9--|
  D|-------------------------------|----9-----------6--------------|
  A|7------------------------------|------------------------9------|
  E|-------------------------------|-------------------------------|
        time                                don't   know    gonna
                                                you     it's




  G|-------------------------------|-------------------------------|
  D|9-------------------7----------|6------------------------------|
  A|--------9---6-----------9------|----7-------9---6---7-\-4---6-\|
  E|-------------------------------|-------------------------------|
    last?                                   it's  love  that  forever
                                                a         lasts




  G|-------------------------------|-------------------------------|
  D|--------4-----------7----------|6------------------------------|
  A|2-----------6-----------9------|----7-------9---6---7-------6--|
  E|-------------------------------|------------------------9------|
                                            it's  love  that    no
                                                a         has




  G|-------------------------------|-------------------------------|
  D|------------6--6H8--8--8\6-----|-------------------------------|
  A|7---7---9-------------------9--|7------------------------------|
  E|-------------------------------|-------------------------------|
    past                                            Don't let me




    CHORUS

  G|----------------1111111111-----|-------------------------------|
  D|------------11-------------9H11|-----------11\9-9--------------|
  A|9------------------------------|9---9--------------------------|
  E|-------------------------------|----------------------------7--|
    down                                            don't let me




  G|----------------9-9-9-9-9------|----------------9--------------|
  D|------------9---------------7H9|------------9---------------9--|
  A|7------------------------------|7---7--------------------------|
  E|-------------------------------|-------------------------------|
    down                                            don't let me




  G|----------------9H119H119H119H119H119H119H119------------------|
  D|------------9H11---------------|----------------9--------------|
  A|9------------------------------|----------------------------6--|
  E|-------------------------------|----------------------7--------|
    down                                            don't let me




  G|----------------9-9-9-9-9------|
  D|------------9---------------9-6|
  A|7------------------------------|
  E|-------------------------------|
    down




    VERSE

  G|---------------------------------------|
  D|---------------------------------------|
  A|7--------------------------------------|
  E|---------------------------------------|
        And from    first   that    really
                the     time    she




  G|-------------------------------|-------------------------------|
  D|------------11-----------------|------------11-----------------|
  A|9---------------------------8--|9------------------------------|
  E|------------------------9------|------------------------7------|
    done                    oh  she     me              she done  good
        me                        done                          me




  G|-------------------------------|
  D|------------9------------------|
  A|7---------------------------6--|
  E|------------------------7------|





  G|---------------------------------------|
  D|---------------------------------------|
  A|7--------------------------------------|
  E|---------------------------------------|
        I   guess           ever    really
                nobody




  G|-------------------------------|-------------------------------|
  D|------------11-----------------|------------11-----------------|
  A|9---------------------------8--|9---------------------------6--|
  E|------------------------9------|------------------------7------|
    done                    oh  she     me              she done  good
        me                        done                          me




  G|-------------------------------|------9-9----------------------|
  D|------------9-------9P6--------|-------------------------------|
  A|7---------------------------6--|7------------------------------|
  E|------------------------7-9----|-------------------------------|
                                                    Don't let me




    CHORUS

  G|----------------1111111111-----|-------------------------------|
  D|------------11--------------11-|------------11109--------------|
  A|9------------------------------|9---9-----------------------6--|
  E|-------------------------------|----------------------7--------|
    down                        hey!                don't let me




  G|----------------9-9-9-9-9-6----|--------9---9------------------|
  D|------------9---------------9-6|----6-9------------------------|
  A|7------------------------------|7-7----------------------------|
  E|-------------------------------|-------------------------------|
    down                                            don't let me




  G|----------------111111111111---|------------9------------------|
  D|------------11--------------9H11--------9H11----9--------------|
  A|9------------------------------|9---9-----------------------6--|
  E|-------------------------------|----------------------7--------|
    down                                            don't let me




  G|----------------9-9-9-9--------|-------------------------------|
  D|------------9-----------9---9--|-------------------------------|
  A|7------------------------------|7------------------------------|
  E|-------------------------------|-------------------------------|
    down




    OUTRO-KEYBOARD SOLO

  G|----------------9H119H119H119--|----9H11-----------------------|
  D|------------9H11---------------|9H11----------------9----------|
  A|9---9--------------------------|------------9---------------6--|
  E|-------------------------------|------------------------7------|





  G|------------6---9-9-9---6------|----------------9-6------------|
  D|----6---9-----------------9-6--|------------9-------9-6--------|
  A|7------------------------------|7---7---------------------7----|
  E|-------------------------------|-------------------------------|





  G|------------9H119H119H119H119H119H119-------9H11--------6------|
  D|--------11---------------------|--------9H11--------------9----|
  A|9---9--------------------------|----------------9---9----------|
  E|-------------------------------|------------------------------7|





  G|------------9------------------|-------------------------------|
  D|--------9H11----7---7---9H11-x-|-------------------------------|
  A|6H7-7--------------------------|7------------------------------|
  E|-------------------------------|-------------------------------|

            
            
Suggest correction
Creating personal tab
Creating personal tab
You can edit any tab online and save it as your Personal.

You can edit, replace or remove any tab part or add personal notes – all changes will be seen only by you.

Personal tabs can be accessed anytime from any device, even offline.
Learn more »
comments
print report bad tab
4 comments total. Showing first comments.
0 reply
skux 142 Jan 27, 2010 10:57 PM

brilliant thanks!

+1 reply
Loxias 41 Apr 19, 2010 01:53 PM

There's a mistake on the bridge:

Your's is:

G|---------------------------------|---------------------------------|
D|-6-------------------------------|---------------------7-----------|
A|-----7-------9---6---7-------6---|-7-------9---6-----------9-------|
E|-------------------------9-------|---------------------------------|


It should be
G|---------------------------------|---------------------------------|
D|-6-------------------------------|---------------------7-----------|
A|-----7-------9---6---7-------6---|---------9---6-----------9-------|
E|-------------------------9-------|----7----------------------------|


Other than that, it's brilliant. Thanks a lot

0 reply
Andrew7290 10 Aug 15, 2017 09:34 PM

Isnt the end bridge part sopposed to be 6H7 and not 6H8?

guest
You may want to rate the tab now too:
select rating
Wanna post a correction for this tab? Suggest correction