Oops, an error
Loading. Please wait.

For You Blue tab

version 1
version 1

Whole song

Interactive

Video

47,317 views 78 this week
7 commentsread comments
1 2 3 4 5
x 15
add to favorites
×
Save as Personal and add changes to this tab that will be seen only by you. Learn more ›
×
You can save this tab as Personal to edit and correct it or add notes. All changes will be seen only by you. Learn more »
launch autoscroll
font size
0
reset
how to read this tab
guitar tuner
edit
Autoscroll
slow
fast
+/-
esc
set tempo
stop
Author
  ----------------------------------------------------------

  THE BEATLES - FOR YOU BLUE (Harrison) From LET IT BE NAKED 
                album. Released 18th November 2003.

  ----------------------------------------------------------

  Tabbed by:PJVillanueva





  Because you're sweet and lovely, girl, I love you
  Because you're sweet and lovely, girl, it's true
  I love you more than ever, girl, I do

  I want you in the morning, girl, I love you
  I want you at the moment I feel blue
  I'm living every moment, girl, for you

  (Walk, ...walk cat, walk)
  (Go, Johnny, go)
  (Same old twelve bar blues)
  (Elmo James got nothin' on this, baby)

  I've loved you from the moment, I saw you
  You looked at me that's all you had to do
  I feel it now, I hope you feel it too

  Because you're sweet and lovely, girl, I love you
  Because you're sweet and lovely, girl, it's true
  I love you more than ever, girl, I do
  Rhythm and blues.





  Guitar 1: Use a capo on the fifth fret.


  Guitar 2: If you want to play Lennon's lap steel guitar 
            part you may tune your guitar as follows:



                 e|0----- ------|
                 B|3------------| Up 1 1/2 steps
                 G|1------------| Up   1/2 step
                 D|2------------| Up 1 step
                 A|2------------| Up 1 step
                 E|0------------|


           
         e|0----|  First string will remain the same
         B|3----|  Second will sound as d when played open.
         G|1----|  Third will sound as G# when played open.
         D|2----|  Fourth will sound as e when played open.
         A|2----|  Fifth will sound as B when played open.
         E|0----|  Sixth string will also remain the same.


         Strumming open will produce an E7 chord.



 (Remember you must not use a capo with this second guitar
  and that you'll need a bottleneck (slide) or at least a 
  glass to play it. Also If you put your guitar on your lap 
  you will reach high notes very easily.)



  12/8
                                    
                              A5
e|------ ------ ------ ------|------ ------ ------ ------| 
B|---------------------------|---------------------------|
G|---------------------------|---------------------------|
D|---------------2P0---------|2---2--2---2--2---2--------|
A|---------------------0---2-|0---0--0---0--0---0--------|
E|--------------0---3--------|---------------------0---1-|




  D7                          B7
e|------ 2---2- 2---2- ------|------ ------ ------ ------|
B|-------1---1--1---1--------|-------0---0--0---0--0---0-|
G|-------2---2--2---2--------|-------2---2--2---2--2---2-|
D|----0----------------------|----1--1---1--1---1--1---1-|
A|---------------------0---1-|2------2---2--2---2--2---2-|
E|2--------------------------|---------------------------|




  E7
e|----0- ------ ----0- ------|----0- ------ ----0- ------|
B|-----------3-------------3-|-----------3-------------3-|
G|0H1------------------------|0H1------------------------|
D|2--------------------------|2--------------------------|
A|---------------------------|---------------------------|
E|0------0------0------0-----|0------0------0------0-----|
                                                       
e|------ ------ ------ ------|------ ------ ------ ------|
d|---------------------------|-------------------------/-|
G#---------------------------|-------------------------/-|
e|---------------------------|-------------------------/-|
B|---------------------------|---------------------------|
E|---------------------------|---------------------------|
                                                       Be..


  00:10
  A                           D
e|----0- ----0- ----0- ----0-|----2- ----2- ----2- ----2-| 
B|----2------2------2------2-|----3------3------3------3-|
G|----2------2------2------2-|----2------2------2------2-|
D|----2------2------2------2-|----0------0------0------0-|
A|----0------0------0------0-|---------------------------|
E|---------------------------|---------------------------|

e|------ ------ ------ ------|------ ------ ------ ------| 
d|10--10-----10-----10-----/-|3---3------3------3------/-|
G#10--10-----10-----10-----/-|3---3------3------3------/-|
e|10--10-----10-----10-----/-|3---3------3------3------/-|
B|---------------------------|---------------------------|
E|---------------------------|---------------------------|

e|------ 13H14- ------ 14----|------ 15---- ------ 15----|
B|-------15------------15----|-------15------------15----|
G|---------------------------|---------------------------|
D|---------------------------|---------------------------|
A|---------------------------|---------------------------|
E|---------------------------|---------------------------|
  cause      sweet and     lovely,                     I
      you're                      girl,



  A
e|----5- ----5- ----5- ----5-|------ 5----- 5----- 5-----|
B|----2------2------2------2-|-------2------2------2-----|
G|----2------2------2------2-|-------2------2------2-----|
D|----2------2------2------2-|-------2------2------2-----|
A|----0------0------0------0-|-------0------0------0-----|
E|---------------------------|---------------------------|
  
e|------ ------ ------ ------|------ ------ ------ ------|
d|10--10-----10-----10-----/-|10--10-----10-----10-----/-|
G#10--10-----10-----10-----/-|10--10-----10-----10-----/-|
e|10--10-----10-----10-----/-|10--10-----10-----10-----/-|
B|---------------------------|---------------------------|
E|---------------------------|---------------------------|

e|------ 13H14- ------ 13H14-|------ 13H14- ------ 13H14-|
B|-------15------------15----|-------15------------15----|
G|---------------------------|---------------------------|
D|---------------------------|---------------------------|
A|---------------------------|---------------------------|
E|---------------------------|---------------------------|
  love you                                             Be..


  00:17
  D
e|------ ------ ------ ------|------ ------ ------ ------|
B|---------------------------|---------------------------|
G|---------------------------|---------------------------|
D|---------------------------|---------------------------|
A|---------------------------|---------------------------|
E|---------------------------|---------------------------|
 
e|------ ------ ------ ------|------ ------ ------ ------|
d|3---3------3------3------/-|3---3------3------3------/-|
G#3---3------3------3------/-|3---3------3------3------/-|
e|3---3------3------3------/-|3---3------3------3------/-|
B|---------------------------|---------------------------|
E|---------------------------|---------------------------|

e|------ 15---- ------ 13----|------ 15---- ------ 15--13|
B|-------15------------15----|-------15------------15----|
G|---------------------------|---------------------------|
D|---------------------------|---------------------------|
A|---------------------------|---------------------------|
E|---------------------------|---------------------------|
  cause      sweet and     lovely,              it's   true          
      you're                      girl,            



  A                Asus4/6 A    
e|----5- ------ 5----- 5---5-|------ 5----- 5----- 5-----|
B|----2---------2-H-3--3---2-|-------2------2------2-----|
G|----2---------2------2---2-|-------2------2------2-----|
D|----2---------2-H-4--4---2-|-------2------2------2-----|
A|----0---------0------0---0-|-------0------0------0-----|
E|---------------------------|---------------------------|
                                                        
e|------ ------ ------ ------|------ ------ ------ ------|
d|10--10-----10-----10-----/-|10--10-----10-----10-----/-|
G#10--10-----10-----10-----/-|10--10-----10-----10-----/-|
e|10--10-----10-----10-----/-|10--10-----10-----10-----/-|
B|---------------------------|---------------------------|
E|---------------------------|---------------------------|

e|------ 13H14- ------ 13H14-|------ 15--13 15--15 13--15|
B|-------15------------15----|-------15------------------|
G|---------------------------|---------------------------|
D|---------------------------|---------------------------|
A|---------------------------|---------------------------|
E|---------------------------|---------------------------|
                                                       I


  00:25
  E7
e|0---0- ----0- ----0- ----0-|------ ------ ------ ------|
B|3---3------3------3------3-|---------------------------|
G|1---1------1------1------1-|---------------------------|
D|2---2------2------2------2-|---------------------------|
A|2---2------2------2------2-|---------------------------|
E|0---0------0------0------0-|---------------------------|     
  
e|------ ------ ------ ------|------ ------ ------ ------|
d|5---5------5------5------/-|3---3------3------3------0-|
G#5---5------5------5------/-|3---3------3------3------4-|
e|5---5------5------5------/-|3---3------3------3------2-|
B|---------------------------|---------------------------|
E|---------------------------|---------------------------|

e|------ 17---- ------ 17----|------ 15---- ------ 15----|
B|-------17------------17----|-------15------------15----|
G|---------------------------|---------------------------|
D|---------------------------|---------------------------|
A|---------------------------|---------------------------|
E|---------------------------|---------------------------|
  love       more   than   ever,     girl,      I      do.
      you



                                  E7
e|----5- --5--- --5--- --5---|5---0- ----0- ----0- 0-----|
B|---------------------------|----3------3------3--3-----|
G|----2--0---0---------------|----1------1------1--1-----|
D|--------------4---4--3---3-|2---2------2------2--2-----|
A|---------------------------|----2------2------2--2-----|
E|---------------------------|----0------0------0--0-----|     
                                                       
e|------ ------ ------ ------|------ ------ ------ ------|
d|---------------------------|----/--5---5------5--------|
G#---------------------------|----/--5---5------5--------|
e|---------------------------|----/--5---5------5--------|
B|---------------------------|---------------------------|
E|---------------------------|---------------------------|

e|------ 13H14- ------ 13H14-|------ ----17 ------ 17----|
B|-------15------------15----|-----------17--------17----|
G|---------------------------|---------------------------|
D|---------------------------|---------------------------|
A|---------------------------|---------------------------|
E|---------------------------|---------------------------|
                                                       I


  00:32
  A                           D
e|----0- ----0- ----0- ----0-|------ ------ ------ ------|   
B|----2------2------2------2-|---------------------------|
G|----2------2------2------2-|---------------------------|
D|----2------2------2------2-|---------------------------|
A|----0------0------0------0-|---------------------------|
E|---------------------------|---------------------------|
  
e|------ ------ ------ ------|------ ------ ------ ------|
d|10---------10-----10-----/-|3---3------3------3--3-\-/-|
G#10---------10-----10-----/-|3---3------3------3--3-\-/-|
e|10---------10-----10-----/-|3---3------3------3--3-\-/-|
B|---------------------------|---------------------------|
E|---------------------------|---------------------------|

e|------ 13H14- ------ 14----|------ 15---- ------ 15----|
B|-------15------------15----|-------15------------15----|
G|---------------------------|---------------------------|
D|---------------------------|---------------------------|
A|---------------------------|---------------------------|
E|---------------------------|---------------------------|
  want you   in     the  morning  girl                 I 


 

  A                                      A7
e|----5- ----5- 5---5- ----5-|------ 5---3- ------ 3-----|
B|----2------2--2---2------2-|-------2---2---------2-----|
G|----2------2--2---2------2-|-------2---2---------2-----|
D|----2------2--2---2------2-|-------2---2---------2-----|
A|----0------0--0---0------0-|-------0---0---------0-----|
E|---------------------------|---------------------------|    
   
e|------ ------ ------ ------|------ ------ ------ ------|
d|10--10-----10-----10-----/-|10--10-----10-----10-----/-|
G#10--10-----10-----10-----/-|10--10-----10-----10-----/-|
e|10--10-----10-----10-----/-|10--10-----10-----10-----/-|
B|---------------------------|---------------------------|
E|---------------------------|---------------------------|

e|------ 13H14- ------ 13H14-|------ 1314-- 14---- 14----|
B|-------15------------15----|-------1515---15-----15----|
G|---------------------------|---------------------------|
D|---------------------------|---------------------------|
A|---------------------------|---------------------------|
E|---------------------------|---------------------------|
  love you,                                            I


  00:39
  D
e|2----- ----2- ------ ------|2----- ----2- ----2- ------|
B|3----------3---------------|3----------3------3--------|
G|2----------2---------------|2----------2------2--------|
D|0----------0---------------|0----------0------0--------|
A|---------------------------|---------------------------|
E|---------------------------|---------------------------|
  
e|------ ------ ------ ------|------ ------ ------ ------|
d|3---3------3------3------/-|3---3------3------3------/-|
G#3---3------3------3------/-|3---3------3------3------/-|
e|3---3------3------3------/-|3---3------3------3------/-|
B|---------------------------|---------------------------|
E|---------------------------|---------------------------|

e|------ 15---- ------ 15----|------ 15---- ------ 15----|
B|-------15------------15----|-------15------------15----|
G|---------------------------|---------------------------|
D|---------------------------|---------------------------|
A|---------------------------|---------------------------|
E|---------------------------|---------------------------|
  want you  at     the    moment    I          feel   blue



  A
e|----5- ------ 5---5- ------|------ 5----- 5----- 5-----|
B|----2---------2---2--------|-------2------2------2-----|
G|----2---------2---2--------|-------2------2------2-----|
D|----2---------2---2--------|-------2------2------2-----|
A|----0---------0---0--------|-------0------0------0-----|
E|---------------------------|---------------------------|
                                                        
e|------ ------ ------ ------|------ ------ ------ ------|
d|10--10-----10-----10-----/-|10--10-----10-----10-----/-|
G#10--10-----10-----10-----/-|10--10-----10-----10-----/-|
e|10--10-----10-----10-----/-|10--10-----10-----10-----/-|
B|---------------------------|---------------------------|
E|---------------------------|---------------------------|

e|------ 13H14- ------ 14----|------ 13H14- ------ 14----|
B|-------15------------15----|-------15------------15----|
G|---------------------------|---------------------------|
D|---------------------------|---------------------------|
A|---------------------------|---------------------------|
E|---------------------------|---------------------------|
                                                       I'm



  00:47
  E7                          D
e|0---0- ----0- 0---0- 0-----|2----- ------ ------ ------|
B|3---3------3--3---3--3-----|3--------------------------|
G|1---1------1--1---1--1-----|2--------------------------|
D|2---2------2--2---2--2-----|0--------------------------|
A|2---2------2--2---2--2-----|---------------------------|
E|0---0------0--0---0--0-----|---------------------------|
  
e|------ ------ ------ ------|------ ------ ------ ------|
d|5---5------5------5------/-|3---3------3------3------0-|
G#5---5------5------5------/-|3---3------3------3------4-|
e|5---5------5------5------/-|3---3------3------3------2-|
B|---------------------------|---------------------------|
E|---------------------------|---------------------------|

e|------ 17---- ------ 15----|------ 15---- ------ 15--13|
B|-------17------------15----|-------15------------15----|
G|---------------------------|---------------------------|
D|---------------------------|---------------------------|
A|---------------------------|---------------------------|
E|---------------------------|---------------------------|
  living     ev'ry         moment girl         for you.



                                  E7
e|----5- --5--- --5--- --5---|5---0- 0---0- ----0- 0-----|
B|---------------------------|----3--3---3------3--3-----|
G|----2--0---0---------------|----1--1---1------1--1-----|
D|--------------4---4--3---3-|2---2--2---2------2--2-----|
A|---------------------------|----2--2---2------2--2-----|
E|---------------------------|----0--0---0------0--0-----| 

e|------ ------ ------ ------|------ ------ ------ ------|
d|---------------------------|----/--5---5------5--------|
G#---------------------------|----/--5---5------5------/-|
e|---------------------------|----/--5---5------5--------|
B|---------------------------|---------------------------|
E|---------------------------|---------------------------|    




  00:54
  A5                          D7
e|------ ------ ------ ------|2----- 2---2- ----2- 2-----|   
B|---------------------------|1------1---1------1--1-----|
G|----2--2------2------------|2------2---2------2--2-----|
D|----2--2------2------------|0------0---0------0--0-----|
A|----0--0------0------------|---------------------------|
E|---------------------------|---------------------------|

e|----10 ------ ------ ------|----3- ------ ------ ------|
d|-----------10--------------|-----------3---------------|
G#10----------------10-----/-|3-----------------3------/-|
e|---------------------------|-------------------------/-|
B|---------------------------|---------------------------|
E|---------------------------|---------------------------|

e|------ 13H14- ------ 13H14-|------ 15---- ------ 15--13|
B|-------15------------15----|-------15------------15----|
G|---------------------------|---------------------------|
D|---------------------------|---------------------------|
A|---------------------------|---------------------------|
E|---------------------------|---------------------------|





  A              Asus4/6   A             A7
e|----5- ------ 5---5- ----5-|----5- ----3- ----3- 3-----|
B|----2---------2H3-3------2-|----2------2------2--2-----|
G|----2---------2---2------2-|----2------2------2--2-----|
D|----2---------2H4-4------2-|----2------2------2--2-----|
A|----0---------0---0------0-|----0------0------0--0-----|
E|---------------------------|---------------------------|    
                              (Walk,
e|----10 ------ ------ ------|----10 ------ ------ ------|
d|----------10---------------|-----------10--------------|
G#10----------------10-\---/-|10----------------10-----/-|
e|10-------------------------|-------------------------/-|
B|---------------------------|---------------------------|
E|---------------------------|---------------------------| 

e|------ 13H14- ------ 14----|------ 13H14- ----15 13--15|
B|-------15------------15----|------------------15-------|
G|---------------------------|---------------------------|
D|---------------------------|---------------------------|
A|---------------------------|---------------------------|
E|---------------------------|---------------------------|




  01:02
  D                                                    A
e|----2- 2----- 2----- 2-----|----2- 2----- 2---2- 2---5-|
B|----3--3------3------3-----|----3--3------3---3--3---2-|
G|----2--2------2------2-----|----2--2------2---2--2---2-|
D|----0--0------0------0-----|----0--0------0---0--0---2-|
A|---------------------------|-------------------------0-|
E|---------------------------|---------------------------|

e|----3- ------ ------ ------|----3- ------ ------ ------|
d|-----------3---------------|-----------3---------------|
G#3-----------------3--------|------------------3--------|
e|3------------------------/-|3------------------------/-|
B|---------------------------|---------------------------|
E|---------------------------|---------------------------|

e|------ 15---- ------ 15----|----15 13--15 ------ 15----|
B|-------15------------15----|----15---------------15----|
G|---------------------------|---------------------------|
D|---------------------------|---------------------------|
A|---------------------------|---------------------------|
E|---------------------------|---------------------------|
                              walk   cat,   walk)




                                                       E7
e|----5- ------ 5---5- ----5-|------ ----5- ------ 5---0-|
B|----2---------2---2------2-|-----------2---------2---3-|
G|----2---------2---2------2-|-----------2---------2---1-|
D|----2---------2---2------2-|-----------2---------2---2-|
A|----0---------0---0------0-|-----------0---------0---2-|
E|---------------------------|-------------------------0-|

e|----10 ------ --10\8 ------|------ ------ ------ ------|
d|---------------------------|---------------------------|
G#-----------10-----------10-|----10-----10-----10-----/-|
e|10-------------------------|-------------------------/-|
B|---------------------------|---------------------------|
E|---------------------------|---------------------------|

e|------ 13H14- ------ 13H14-|------ 13H14- ------ 13H14-|
B|-------15------------15----|-------15------------15----|
G|---------------------------|---------------------------|
D|---------------------------|---------------------------|
A|---------------------------|---------------------------|
E|---------------------------|---------------------------|
               (Go,      Johnny,  go)



  01:09
                              D
e|----0- ----0- ------ 0-----|------ 2---22 2---2- 2-----|
B|----3------3---------3-----|-------3---33-3---3--3-----|
G|----1------1---------1-----|-------2---22-2---2--2-----|
D|----2------2---------2-----|-------0---00-0---0--0-----|
A|----2------2---------2-----|---------------------------|
E|----0------0---------0-----|---------------------------|

e|----5- ------ ------ ------|----3- ------ ------ ------|
d|-----------5---------------|-----------3---------------|
G#5-----------------5------/-|3-----------------3-/-4----|
e|5------------------------/-|3------------------------2-|
B|---------------------------|---------------------------|
E|---------------------------|---------------------------|

e|------ 17---- ------ 17----|------ 15--13 15--15 13--15|
B|-------17------------17----|-------15------------------|
G|---------------------------|---------------------------|
D|---------------------------|---------------------------|
A|---------------------------|---------------------------|
E|---------------------------|---------------------------|





                                     E7
e|----5- --5--- --5--- --5---|5----- 0---0- 0---0- 0-----|
B|---------------------------|-------3---3--3---3--3-----|
G|----2--0---0---------------|-------1---1--1---1--1-----|
D|--------------4---4--3---3-|2------2---2--2---2--2-----|
A|---------------------------|-------2---2--2---2--2-----|
E|---------------------------|-------0---0--0---0--0-----| 

e|------ ------ ------ ------|------ ------ ------ ------|
d|---------------------------|----/--5---5------5--------|
G#---------------------------|----/--5---5------5--------|
e|---------------------------|----/--5---5------5--------|
B|---------------------------|---------------------------|
E|---------------------------|---------------------------|

e|------ 13H14- ------ 14----|------ 17--17 ------ 17----|
B|-------15------------15----|-------17--17--------17----|
G|---------------------------|---------------------------|
D|---------------------------|---------------------------|
A|---------------------------|---------------------------|
E|---------------------------|---------------------------|
      Same      twelve     blues)
         old        bar



  01:16
  A                           D
e|0----- 0---0- 0---0- 0-----|---2-- 2---2- 2----- 2-----|  
B|2------2---2--2---2--2-----|---3---3---3--3------3-----|  
G|2------2---2--2---2--2-----|---2---2---2--2------2-----|
D|2------2---2--2---2--2-----|---0---0---0--0------0-----|
A|0------0---0--0---0--0-----|---------------------------|
E|---------------------------|---------------------------|

e|------ ------ ------ ------|------ ------ ------ ------|
d|10--10-----10-----10-----/-|15--15-----15-----15-----/-|
G#10--10-----10-----10-----/-|15--15-----15-----15-----/-|
e|10--10-----10-----10-----/-|15--15-----15-----15-----/-|
B|---------------------------|---------------------------|
E|---------------------------|---------------------------|

e|10---- 8----- 7---5- ------|------ ------ ------ ------|
B|---------------------------|8------6------5---3--------|
G|11-----9------7---5--------|---------------------------|
D|---------------------------|9------7------5---3--------|
A|---------------------------|---------------------------|
E|---------------------------|---------------------------|





  A                                      A7
e|----5- ------ 5---5- ----5-|------ 5---3- ------ 3-----|
B|----2---------2---2------2-|-------2---2---------2-----|
G|----2---------2---2------2-|-------2---2---------2-----|
D|----2---------2---4------2-|-------2---2---------2-----|
A|----0---------0---0------0-|-------0---0---------0-----|
E|---------------------------|---------------------------|

e|------ ------ ------ ------|------ ------ ------ ------|
d|10--10-----10-----10-----/-|10--10-----10-----10-\---/-|
G#10--10-----10-----10-----/-|10--10-----10-----10-\---/-|
e|10--10-----10-----10-----/-|10--10-----10-----10-\---/-|
B|---------------------------|---------------------------|
E|---------------------------|---------------------------|
 
e|------ ------ ------ ------|------ ------ ------ ------|
B|3------1------0------------|---------------------------|
G|------------------2--------|---------------------------|
D|4------2------0----------5-|-------3------2---0--------|
A|------------------3--------|---------------------------|
E|-------------------------7-|-------5------3---1--------|




  01:24
  D
e|----2- 2----- 2----- 2-----|----2- 2---2- 2----- 2-----|
B|----3--3------3------3-----|----3--3---3--3------3-----|
G|----2--2------2------2-----|----2--2---2--2------2-----|
D|----0--0------0------0-----|----0--0---0--0------0-----|
A|---------------------------|---------------------------|   
E|---------------------------|---------------------------|

e|------ ------ ------ ------|------ ------ ------ ------|
d|3---3------3------3------/-|3---3------3------3--3---/-|
G#3---3------3------3------/-|3---3------3------3--3---/-|
e|3---3------3------3------/-|3---3------3------3--3---/-|
B|---------------------------|---------------------------|
E|---------------------------|---------------------------|

e|------ ------ ------ ------|------ ------ ------ ------|
B|---------------------------|---------------------------|
G|0----------2---------0-----|----2---------3---3--------|
D|0----------0---------0-----|----0---------0---0--------|
A|---------------------------|---------------------------|
E|3------3------3------3-----|3------3------3------3-----|





  A
e|----5- ------ 5----- ----5-|------ 5---5- ------ 5-----|
B|----2---------2----------2-|-------2---2---------2-----|
G|----2---------2----------2-|-------2---2---------2-----|
D|----2---------2----------2-|-------2---2---------2-----|
A|----0---------0----------0-|-------0---0---------0-----|
E|---------------------------|---------------------------|

e|10--10 ----10 ----10 \---/-|10--10 ----10 ----10 ------|
d|10--10-----10-----10-\---/-|10--10-----10-----10-------|
G#10--10-----10-----10-\---/-|10--10-----10-----10-------|
e|10--10-----10-----10-\---/-|10--10-----10-----10-------|
B|---------------------------|---------------------------|
E|---------------------------|---------------------------| 
       
e|------ ------ ------ ------|------ ------ ------ ------|
B|---------------------------|---------------------------|
G|---------------------------|---------------------------|
D|4---4--5------4---4------4-|5---3--5---5--3------5---3-|
A|5---5--5------5---5------5-|5---5--5---5--5------5---5-|
E|---------------------------|---------------------------|
      Elmo  James got nothin'on   baby 
                              this,

      
  01:32
  E7                          D7
e|0---0- ----0- ----0- 0-----|------ ------ ------ ------|
B|3---3------3------3--3-----|-------1---1--1------1-----|
G|1---1------1------1--1-----|-------2---2--2------2-----|
D|2---2------2------2--2-----|-------0---0--0------0-----|
A|2---2------2------2--2-----|---------------------------|
E|0---0------0------0--0-----|---------------------------|

e|----5- ----5- ----5- ----/-|3---3- ----3- ----3- ------|
d|----5------5------5------/-|3---3------3------3------0-|
G#----5------5------5------/-|3---3------3------3------4-|
e|----5------5------5------/-|3---3------3------3------2-|
B|---------------------------|---------------------------|
E|---------------------------|---------------------------|

e|------ ------ ------ ------|------ ------ ------ ------|
B|-------10--8------6--8-----|10--8------6--8---6--5-----|
G|---------------------------|---------------------------|
D|-------11--9------7--9-----|11--9------7--9---7--5-----|
A|---------------------------|---------------------------|
E|---------------------------|---------------------------|





                                     E7
e|----5- --5--- --5--- --5---|5----- 0---0- ----0- ------|
B|---------------------------|-------3---3------3--------|
G|----2--0---0---------------|-------1---1------1--------|
D|--------------4---4--3---3-|2------2---2------2--------|
A|---------------------------|-------2---2------2--------|
E|---------------------------|-------0---0------0--------|       
                                                      
e|------ ------ ------ ------|------ ----5- ----5- ------|
d|---------------------------|-----------5------5------/-|
G#---------------------------|-----------5------5------/-|
e|---------------------------|----/--5-----------------/-|
B|---------------------------|---------------------------|
E|---------------------------|---------------------------|

e|------ ------ ------ ------|------ ------ ------ ------|
B|3------1------3-3----3-----|---------------------------|
G|2------2------4-4----3-----|----2------2------2--------|
D|0------0------0------0-----|----2------2------2--------|
A|---------------------------|---------------------------|
E|---------------------------|---------------------------|   
                                                       I've



  01:39
  A                           D
e|------ 5----- ------ 5-----|------ 5----- ------ 5-----|
B|-------2-------------2-----|-------3-------------3-----|
G|-------2-------------2-----|-------2-------------2-----|
D|-------2-------------2-----|-------0-------------0-----|
A|-------0-------------0-----|---------------------------|
E|---------------------------|---------------------------|
  
e|------ ------ ------ ------|------ ------ ------ ------|
d|10--10-----10-----10-----/-|3---3------3------3------/-|
G#10--10-----10-----10-----/-|3---3------3------3------/-|
e|10--10-----10-----10-----/-|3---3------3------3------/-|
B|---------------------------|---------------------------|
E|---------------------------|---------------------------|

e|------ 13H14- ------ 13H14-|------ 15---- ------ 15----|
B|-------15------------15----|-------15------------15----|
G|---------------------------|---------------------------|
D|---------------------------|---------------------------|
A|---------------------------|---------------------------|
E|---------------------------|---------------------------|
  loved      from   the    moment                      I 
      you



  A
e|----5- ------ 5---5- ----5-|----5- ----3- ------ ------|
B|----2---------2---2------2-|----2------2---------------|
G|----2---------2---2------2-|----2------2---------------|
D|----2---------2---2------2-|----2------2---------------|
A|----0---------0---0------0-|----0------0---------------|
E|---------------------------|---------------------------|
  
e|------ ------ ------ ------|------ ------ ------ ------|
d|10--10-----10-----10-----/-|10--10-----10-----10-----/-|
G#10--10-----10-----10-----/-|10--10-----10-----10-----/-|
e|10--10-----10-----10-----/-|10--10-----10-----10-----/-|
B|---------------------------|---------------------------|
E|---------------------------|---------------------------|

e|------ 13H14- ------ 15--13|15---- 15--13 15--15 13--15|
B|-------15------------15----|-------15------------------|
G|---------------------------|---------------------------|
D|---------------------------|---------------------------|
A|---------------------------|---------------------------|
E|---------------------------|---------------------------|
  saw you                                              You



  01:47
  D
e|----5- ----5- ----5- ----5-|----5- ----5- ----5- ----5-|
B|----3------3------3------3-|----3------3------3------3-|
G|----2------2------2------2-|----2------2------2------2-|
D|----0------0------0------0-|----0------0------0------0-|
A|---------------------------|---------------------------|
E|---------------------------|---------------------------|
  
e|------ ------ ------ ------|------ ------ ------ ------|
d|3---3------3------3--\---/-|3---3------3------3--3---/-|
G#3---3------3------3--\---/-|3---3------3------3--3---/-|
e|3---3------3------3--\---/-|3---3------3------3--3---/-|
B|---------------------------|---------------------------|
E|---------------------------|---------------------------|

e|------ 13---- ------ 13----|------ 13---- ------ 13H1513
B|-------15------------15----|-------15------------15----|
G|---------------------------|---------------------------|
D|---------------------------|---------------------------|
A|---------------------------|---------------------------|
E|---------------------------|---------------------------|
  looked     me     that's all    you    had    to     do,
      at



  A                Asus4/6 A    
e|----5- ------ 5----- 5---5-|------ 5----- 5----- 5-----|
B|----2---------2-H-3--3---2-|-------2------2------2-----|
G|----2---------2------2---2-|-------2------2------2-----|
D|----2---------2-H-4--4---2-|-------2------2------2-----|
A|----0---------0------0---0-|-------0------0------0-----|
E|---------------------------|---------------------------|
                                                         
e|------ ------ ------ ------|------ ------ ------ ------|
d|10--10-----10-----10-----/-|10--10-----10-----10-----/-|
G#10--10-----10-----10-----/-|10--10-----10-----10-----/-|
e|10--10-----10-----10-----/-|10--10-----10-----10-----/-|
B|---------------------------|---------------------------|
E|---------------------------|---------------------------|

e|------ 13---- ------ 13----|------ 13---- ------ 13----|
B|-------15------------15----|-------15------------15----|
G|---------------------------|---------------------------|
D|---------------------------|---------------------------|
A|---------------------------|---------------------------|
E|---------------------------|---------------------------|
                                                       I



  01:54
  E7
e|0---0- ----0- ----0- ----0-|2----- ------ ------ ------|
B|3---3------3------3------3-|3--------------------------|
G|1---1------1------1------1-|2--------------------------|
D|2---2------2------2------2-|0--------------------------|
A|2---2------2------2------2-|---------------------------|
E|0---0------0------0------0-|---------------------------|     
  
e|------ ------ ------ ------|------ ------ ------ ------|
d|5---5------5------5------/-|3---3------3------3--3---0-|
G#5---5------5------5------/-|3---3------3------3--3---4-|
e|5---5------5------5------/-|3---3------3------3--3---2-|
B|---------------------------|---------------------------|
E|---------------------------|---------------------------|

e|------ 17---- ------ 17----|------ 15--13 15--15 13--15|
B|-------17------------17----|-------15-----15-----15----|
G|---------------------------|---------------------------|
D|---------------------------|---------------------------|
A|---------------------------|---------------------------|
E|---------------------------|---------------------------|
  feel       now    I      hope  you   feel   it   too.
      it



                                  E7
e|----5- --5--- --5--- --5---|5---0- 0---0- 0---0- 0-----|
B|---------------------------|----3--3---3--3---3--3-----|
G|----2--0---0---------------|----1--1---1--1---1--1-----|
D|--------------4---4--3---3-|2---2--2---2--2---2--2-----|
A|---------------------------|----2--2---2--2---2--2-----|
E|---------------------------|----0--0---0--0---0--0-----|     
                                                        
e|------ ------ ------ ------|------ 5---5- ----5- --/---|
d|---------------------------|----/--5---5------5----/---|
G#---------------------------|----/--5---5------5----/---|
e|---------------------------|----/--5-------------------|
B|---------------------------|---------------------------|
E|---------------------------|---------------------------|

e|------ 13---- ------ 13----|------ ------ --2020-202020|
B|-------15------------15----|----------------2020-202020|
G|---------------------------|---------------------------|
D|---------------------------|---------------------------|
A|---------------------------|---------------------------|
E|---------------------------|---------------------------|
                                                       Be..



  02:01
  A                           D
e|----0- ----0- ----0- ----0-|----2- ----2- ----2- ------|
B|----2------2------2------2-|----3------3------3--------|
G|----2------2------2------2-|----2--2---2------2--------|
D|----2------2------2------2-|----0--0---0------0--------|
A|----0------0------0------0-|---------------------------|
E|---------------------------|---------------------------| 
 
e|------ ------ ------ ------|------ ------ ------ ------|
d|10--10-----10-----10-----/-|3---3------3--3---3-/------|
G#10--10-----10-----10-----/-|3---3------3--3---3-/------|
e|10--10-----10-----10-----/-|3---3------3--3---3-/------|
B|---------------------------|---------------------------|
E|---------------------------|---------------------------|

e|------ 13---- ------ 14----|------ 15---- ------ 15----|
B|-------15------------15----|-------15------------15----|
G|---------------------------|---------------------------|
D|---------------------------|---------------------------|
A|---------------------------|---------------------------|
E|---------------------------|---------------------------|
  cause      sweet and     lovely,                     I
      you're                      girl,



  A
e|----5- 5---5- ----5- ----5-|------ 5---3- ----3- ----2-|
B|----2--2---2------2------2-|-------2---2------2------3-|
G|----2--2---2------2------2-|-------2---2------2------2-|
D|----2--2---2------2------2-|-------2---2------2------0-|
A|----0--0---0------0------0-|-------0---0------0--------|
E|---------------------------|---------------------------|
  
e|------ ------ ------ ------|------ ------ ------ ------|
d|10--10-----10-----10-10\--/|10--10-----10-----10\----/-|
G#10--10-----10-----10-10\--/|10--10-----10-----10\----/-|
e|10--10-----10-----10-10\--/|10--10-----10-----10\----/-|
B|---------------------------|---------------------------|
E|---------------------------|---------------------------|

e|------ 13H1414------ 14----|1314-- 13---- 1314-- 14--15|
B|-------15---15-------15----|1515---15-----1515---15--15|
G|---------------------------|---------------------------|
D|---------------------------|---------------------------|
A|---------------------------|---------------------------|
E|---------------------------|---------------------------|
  love you                                              Be..



  02:09
  D                           
e|----2- ----2- ----2- ----2-|----2- ----2- ----2- ----2-|
B|----3------3------3------3-|----3------3------3------3-|
G|----2------2------2------2-|----2------2------2------2-|
D|----0------0------0------0-|----0------0------0------0-|
A|---------------------------|---------------------------|
E|---------------------------|---------------------------|
 
e|------ ------ ------ ------|------ ------ ------ ------|
d|3---3------3------3-\----/-|3---3------3------3-/------|
G#3---3------3------3-\----/-|3---3------3------3-/------|
e|3---3------3------3-\----/-|3---3------3------3-/------|
B|---------------------------|---------------------------|
E|---------------------------|---------------------------|

e|------ 15---- ------ 15----|------ 15---- ------ 15----|
B|-------15------------15----|-------15------------15----|
G|---------------------------|---------------------------|
D|---------------------------|---------------------------|
A|---------------------------|---------------------------|
E|---------------------------|---------------------------|
  cause      sweet and     lovely,              it's   true
      you're                      girl,




  A                Asus4/6 A    
e|5---5- ------ 5---5- ------|5----- 5----- 5----- 5-----|
B|2---2---------3---3--------|2------3------2------3-----|
G|2---2---------2---2--------|2------2------2------2-----|
D|2---2---------4---4--------|2------4------2------4-----|
A|0---0---------0---0--------|0------0------0------0-----|
E|---------------------------|---------------------------|
                                                        
e|------ ------ ------ ------|------ ------ ------ ------|
d|10--10-----10-----10-\----/|10--10-----10-----10-\-----|
G#10--10-----10-----10-\----/|10--10-----10-----10-\-----|
e|10--10-----10-----10-\----/|10--10-----10-----10-\-----|
B|---------------------------|---------------------------|
E|---------------------------|---------------------------|
 
e|131414 151515 131414 151515|131414 151515 131414 151515|
B|151515-151515-151515-151515|151515-151515-151515-151515|
G|---------------------------|---------------------------|
D|---------------------------|---------------------------|
A|---------------------------|---------------------------|
E|---------------------------|---------------------------|
                                                       I



  02:16
  E7
e|----0- 0---0- ----0- ----2-|----2- ------ 2---2- ----0-|
B|----3--3---3------3------3-|----3---------3---3------2-|
G|----1--1---1------1------2-|----2---------2---2------2-|
D|----2--2---2------2------0-|----0---------0---0------2-|
A|----2--2---2------2--------|-------------------------0-|
E|----0--0---0------0--------|---------------------------|     
  love you   more   than   ever,  girl,         I      do.
e|------ ------ ------ ------|------ ------ ------ ------|
d|5---5------5------5--5---/-|3---3------3------3------0-|
G#5---5------5------5--5---/-|3---3------3------3------4-|
e|5---5------5------5--5---/-|3---3------3------3------2-|
B|---------------------------|---------------------------|
E|---------------------------|---------------------------|

e|------ 17---- ------ 17----|------ 15--13 15--15 15----|
B|-------17------------17----|-------15-----15--15-15----|
G|---------------------------|---------------------------|
D|---------------------------|---------------------------|
A|---------------------------|---------------------------|
E|---------------------------|---------------------------|




                                         (.
                                     E7  A
e|----5- --5--- --5--- --5---|5----- 0---0- ------ ------|
B|---------------------------|-------3---2---------------|
G|----2--0---0---------------|-------1---2---------------|
D|--------------4---4--3---3-|2------2---2---------------|
A|---------------------------|-------2---0---------------|
E|---------------------------|-------0-------------------| 
                              Rhythm and blues
                                         (.          
e|------ ------ ------ ------|------ /---10 ------ ------|
d|---------------------------|-------/---10--------------|
G#---------------------------|-------/---10--------------|
e|---------------------------|-------/---10--------------|
B|---------------------------|---------------------------|
E|---------------------------|---------------------------|

e|131414 141414 151515 151515|141415 14--14 ------ ------|
B|151515-151515-151515-151515|151515-15--15--------------|
G|---------------------------|---------------------------|
D|---------------------------|---------------------------|
A|---------------------------|---------------------------|
E|---------------------------|---------------------------|    
                                                      

 






        B  Bend
        R  Release
        /  slide up
        \  slide down
        H  hammer-on
        P  pull-off
        ~  vibrato
        +  harmonic
        x  Mute note
        . - play note like a dot in standard notation
        ^ - ties two notes together
        (. Pause


     

            
            
Suggest correction
Creating personal tab
Creating personal tab
You can edit any tab online and save it as your Personal.

You can edit, replace or remove any tab part or add personal notes – all changes will be seen only by you.

Personal tabs can be accessed anytime from any device, even offline.
Learn more »
comments
print report bad tab
7 comments total. Showing first comments.
0 reply
Ronan514 10 Oct 17, 2006 07:40 PM

I think this is pretty accurate

0 reply
hairyboy 10 Nov 16, 2006 11:07 AM

great tab!! Youre the best beatles tabber ever!!:D

0 reply
walrus11 124 Jun 21, 2007 10:54 PM

again, perfect.

guest
You may want to rate the tab now too:
select rating
Wanna post a correction for this tab? Suggest correction