Oops, an error
Loading. Please wait.

Hello Little Girl bass

version 1
version 1

Whole song

Interactive

2,023 views 1 this week
no commentswrite comment
1 2 3 4 5
2 more votes to show rating
add to favorites
×
Save as Personal and add changes to this tab that will be seen only by you. Learn more ›
×
You can save this tab as Personal to edit and correct it or add notes. All changes will be seen only by you. Learn more »
launch autoscroll
font size
0
reset
guitar tuner
edit
Autoscroll
slow
fast
+/-
esc
set tempo
stop
Author
Hello Little Girl
The Beatles
Written by John Lennon and Paul McCartney.

A song from the Anthology. They played it at the Decca audition.

Intro:
G|------- ------- ------- -------|------- ------- ------- -------|
D|-------------------------------|-------------------------------|
A|-------------------------------|7------------------------------|
E|-------------------------------|-------------------------------|
                                          Hel  -  lo,     little


G|------- ------- ------- -------|------- ------- ------- -------|
D|7------------------------------|-------------------------------|
A|----------------9--------------|----------------7--------------|
E|-------------------------------|7------------------------------|
  girl,                                   Hel  -  lo,     little


G|------- ------- ------- -------|------- ------- ------- -------|
D|7------------------------------|-------------------------------|
A|----------------9--------------|----------------7--------------|
E|-------------------------------|7------------------------------|
  girl,                                   Hel  -  lo,     little


G|------- ------- ------- -------|------- ------- ------- -------|
D|7------------------------------|-------------------------------|
A|----------------9--------------|----------------7--------------|
E|-------------------------------|7------------------------------|
  girl                                                    When I

Verse:
G|------- ------- ------- -------|------- ------- ------- -------|
D|7------------------------------|-------------------------------|
A|----------------7--------------|5---------------7--------------|
E|-------------------------------|-------------------------------|
  see you passing by,     I  say,         mm,


G|------- ------- ------- -------|------- ------- ------- -------|
D|-------------------------------|7------------------------------|
A|5---------------7--------------|----------------7--------------|
E|-------------------------------|-------------------------------|
          hello,      little  girl                        When you're


G|------- ------- ------- -------|------- ------- ------- -------|
D|7------------------------------|-------------------------------|
A|----------------7--------------|5---------------7--------------|
E|-------------------------------|-------------------------------|
  passing on your way,    I  say,         mm,


G|------- ------- ------- -------|------- ------- ------- -------|
D|-------------------------------|7------------------------------|
A|5---------------7--------------|----------------7--------------|
E|-------------------------------|-------------------------------|
          hello,      little  girl                        When I

Verse:
G|------- ------- ------- -------|------- ------- ------- -------|
D|7------------------------------|-------------------------------|
A|----------------7--------------|5---------------7--------------|
E|-------------------------------|-------------------------------|
  see you passing by,     I  cry,         mm,


G|------- ------- ------- -------|------- ------- ------- -------|
D|-------------------------------|7------------------------------|
A|5---------------7--------------|----------------7--------------|
E|-------------------------------|-------------------------------|
          hello,      little  girl                        When I


G|------- ------- ------- -------|------- ------- ------- -------|
D|7------------------------------|-------------------------------|
A|----------------7--------------|5---------------7--------------|
E|-------------------------------|-------------------------------|
  try to  catch   eye,    I   cry,        mm,
              your

G|------- ------- ------- -------|------- ------- ------- -------|
D|-------------------------------|7------------------------------|
A|5---------------7--------------|----------------7--------------|
E|-------------------------------|-------------------------------|
          hello,      little  girl
                                                          hel-
Bridge:
G|------- ------- ------- -------|------- ------- ------- -------|
D|7------------------------------|-------------------------------|
A|----------------9--------------|----------------7--------------|
E|-------------------------------|7------------------------------|
      I   send you flowers,   but you don't   care,
  lo                                      woah    woah    woah

G|------- ------- ------- -------|------- ------- ------- -------|
D|7------------------------------|-------------------------------|
A|----------------9--------------|----------------7--------------|
E|-------------------------------|7------------------------------|
      you ne- ver seem to see me  standing    there,
  woah                                    woah    woah    woah

G|------- ------- ------- -------|------- ------- ------- -------|
D|7------------------------------|-------------------------------|
A|----------------9--------------|----------------7--------------|
E|-------------------------------|7------------------------------|
      I of- ten wonder what you're thinking   of,
  woah                                    woah    woah    woah

G|------- ------- ------- -------|------- ------- ------- -------|
D|7------------------------------|-------------------------------|
A|----------------9--------------|------------7-----------7------|
E|-------------------------------|7---7--------------------------|
      I hope it's me,         and love, love, love!       So  I
  woah
Verse:
G|------- ------- ------- -------|------- ------- ------- -------|
D|7------------------------------|-------------------------------|
A|----------------7--------------|5---------------7--------------|
E|-------------------------------|-------------------------------|
  hope        a   day when you say,       mm,
      there'll
          come
G|------- ------- ------- -------|------- ------- ------- -------|
D|-------------------------------|7------------------------------|
A|5---------------7--------------|----------------7---7---7---7--|
E|-------------------------------|-------------------------------|
          you're my   little  girl


G|------- ------- ------- -------|------- ------- ------- -------|
D|7-----------7------------------|-------------------------------|
A|----------------7---7---7---7--|5---5---5---5---7---7---7------|
E|-------------------------------|----------------------------5--|



G|------- ------- ------- -------|------- ------- ------- -------|
D|-------------------------------|7---4--------------------------|
A|5---5---5---5---7---7---7---7--|--------7---4-----------7------|
E|-------------------------------|----------------5--------------|

                                                          hel-
Bridge:
G|------- ------- ------- -------|------- ------- ------- -------|
D|7------------------------------|4------------------------------|
A|----------------7--------------|------------4---7--------------|
E|-------------------------------|-------------------------------|
      It's    the first   that it happened to me,
          not         time
  lo                                      woah    woah    woah
G|------- ------- ------- -------|------- ------- ------- -------|
D|7------------------------------|-------------------------------|
A|----------------9--------------|----------------7--------------|
E|-------------------------------|7------------------------------|
      it's been a long, lone- ly  time,
  woah                                    woah    woah    woah

G|------- ------- ------- -------|------- ------- ------- -------|
D|7------------------------------|-------------------------------|
A|----------------9--------------|----------------7--------------|
E|-------------------------------|7------------------------------|
      And it's so funny,      so  funny   to  see,
  woah                                    woah    woah    woah

G|------- ------- ------- -------|------- ------- ------- -------|
D|7------------------------------|-------------------------------|
A|----------------9--------------|------------7-----------7------|
E|-------------------------------|7---7--------------------------|
      That I'm a- bout to lose my my, my      mind        So  I
  woah
Outro:
G|------- ------- ------- -------|------- ------- ------- -------|
D|7------------------------------|-------------------------------|
A|----------------7--------------|5---------------7--------------|
E|-------------------------------|-------------------------------|
  hope        a   day when you say,       mm,
      there'll
          come
G|------- ------- ------- -------|------- ------- ------- -------|
D|-------------------------------|7------------------------------|
A|5---------------7--------------|----------------9--------------|
E|-------------------------------|-------------------------------|
          you're my   little  girl,


G|------- ------- ------- -------|------- ------- ------- -------|
D|-------------------------------|7------------------------------|
A|----------------7--------------|----------------9--------------|
E|7------------------------------|-------------------------------|
          You're my   little  girl,


G|------- ------- ------- -------|------- ------- ------- -------|
D|-------------------------------|7------------------------------|
A|----------------7--------------|----------------9--------------|
E|7------------------------------|-------------------------------|
          You're my   little  girl,   oh,     yeah!


G|------- ------- ------- -------|------- ------- ------- -------|
D|-------------------------------|7---------------6--------------|
A|----------------7--------------|-------------------------------|
E|7------------------------------|-------------------------------|
          You're my   little  girl


G|------- ------- ------- -------|------- ------- ------- -------|
D|4---------------3--------------|2------------------------------|
A|-------------------------------|-------------------------------|
E|-------------------------------|-------------------------------|
                                       do    do   do   do


G|------- ------- ------- -------|------- ------- ------- -------|
D|-------------------------------|-------------------------------|
A|-------------------------------|-------------------------------|
E|5------------------------------|-------------------------------|

Please e-mail me for any corrections, or write a comment.

            
            
Suggest correction
Creating personal tab
Creating personal tab
You can edit any tab online and save it as your Personal.

You can edit, replace or remove any tab part or add personal notes – all changes will be seen only by you.

Personal tabs can be accessed anytime from any device, even offline.
Learn more »
Give kudos to tab author, rate the tab!
1 2 3 4 5
comments
print report bad tab
guest
You may want to rate the tab now too:
select rating
Wanna post a correction for this tab? Suggest correction