Oops, an error
Loading. Please wait.
We have an official Helter Skelter tab made by UG professional guitarists. Check out the tab »
×
19,886 views 126 this week
no commentswrite comment
1 2 3 4 5
x 9
add to favorites
×
Save as Personal and add changes to this tab that will be seen only by you. Learn more ›
×
You can save this tab as Personal to edit and correct it or add notes. All changes will be seen only by you. Learn more »
launch autoscroll
font size
0
reset
guitar tuner
backing track
0:00
0:00
edit
Autoscroll
slow
fast
+/-
esc
set tempo
stop
[00:13]
G|--------------------------------|---------------------------------|
D|--------------------------------|---------------------------------|
A|--------------------------------|---------------------------------|
E|--------------------------------|---3---3---3---3---3---3-2-3-5-7-|

G|--------------------------------|---------------------------------|
D|--------------------------------|---------------------------------|
A|--7--7--7--7--7p5--7p5--7p5--7--|-7-7-7-7-7-7-7-7-7-7-7-7-7-7-7p5-|
E|--------------------------------|---------------------------------|

G|--------------------------------|---------------------------------|
D|--------------------------------|---------------------------------|
A|--7--7-7-7--7-7-7--7-7-7-7-7p5--|-7--7-7-5h7-7-7p5-7-7-7-7-7--7-7-|
E|--------------------------------|---------------------------------|

G|--------------------------------|---------------------------------|
D|--------------------------------|---------------------------------|
A|--7-7-7-7-7---7-7-7-7-7-7-7-7-7-|-7-7-5h7-7-7--5h7-7-7-5h7-7-7-7--|
E|--------------------------------|---------------------------------|

G|--------------------------------|---------------------------------|
D|--------------------------------|---------------------------------|
A|--------------------------------|---------------------------------|
E|--3---3---3---3-3-3---3---3---3-|--5------------------------------|

G|--------------------------------|---------------------------------|
D|--------------------------------|-----------------5-4-------------|
A|--5h7-7-7-7-7-7-7-7-7-7-7-7-7-7-|----------------------7-5-4------|
E|--------------------------------|--5--5--5--5----------------7-5--|

G|--------------------------------|---------------------------------|
D|--------------------------------|-----------------5-4-------------|
A|-----------------5-4-2-0--------|----------------------7-5-4------|
E|--0--0--0--0-------------4-2-0--|--5--5--5--5----------------7-5--|

G|--------------------------------|
D|--------------------------------|
A|--------------------------------|
E|--0~----------------------------|

[00:53]
G|--------------------------------|---------------------------------|
D|--------------------------------|---------------------------------|
A|--7-7-7-7-7-7-7-7-7-7-7-5h7-5h7-|-7-7-7-7-7-7-7-7-5h7-5h7-5h7-5h7-|
E|--------------------------------|---------------------------------|

G|--------------------------------|---------------------------------|
D|--------------------------------|---------------------------------|
A|--7--7--7--7-7-7-7-7-7-7-7-7-7--|-5h7-7-7-5h7-7-7-5h7-5h7-5h7-5h7-|
E|--------------------------------|---------------------------------|

G|--------------------------------|---------------------------------|
D|--------------------------------|---------------------------------|
A|--7--7--7--7-7-7-7-7-7-7-7-7-7--|-5h-7-7-7-7-7-7-7-5h-7-7-7-7-7-7\|
E|--------------------------------|---------------------------------|

G|--------------------------------|---------------------------------|
D|--------------------------------|---------------------------------|
A|--------------------------------|---------------------------------|
E|-3---3---3---3---3---3---3---3--|--5~-----------------------------|

G|--------------------------------|---------------------------------|
D|--------------------------------|-----------------5-4-------------|
A|--5h7-7-7-7-7-7-7-7-7-7-7-7-7-7-|----------------------7-5-4------|
E|--------------------------------|--5--5--5--5----------------7-5--|

G|--------------------------------|---------------------------------|
D|--------------------------------|-----------------5-4-------------|
A|-----------------5-4-2-0--------|----------------------7-5-4------|
E|--0--0--0--0-------------4-2-0--|--5--5--5--5----------------7-5--|

G|--------------------------------|
D|--------------------------------|
A|--------------------------------|
E|--0~----------------------------|

[01:30]
G|--9--9--9--9--9--9--9--7--------|---------------------------------|
D|--------------------------9---7-|---------------------------------|
A|--------------------------------|--5h7-7-7-7-7-7-7-5----4---------|
E|--------------------------------|----------------------------4----|

G|--------------------------------|---------------------------------|
D|--------------------------------|---------------------------------|
A|--------------------------------|--7-7-7--5h7--7--7-7-7-7-7-5-----|
E|-5---5---5-5-5----5---5---5---5-|-----------------------------7---|

G|--------------------------------|---------------------------------|
D|--------------------------------|---------------------------------|
A|--------------------------------|--7~-----------------------------|
E|--5---5---5---5---5---5---5---5-|---------------------------------|

G|---9--9--9--9--9----------------|---9--9--9--9--9-----------------|
D|--------------------------------|---------------------------------|
A|-----------------7-7-7-7-7-7-7--|-----------------7-7-7-7-7-7-7---|
E|--------------------------------|---------------------------------|

G|---9--9--9--9--9----------------|---------------------------------|
D|--------------------------------|---------------------------------|
A|-----------------7-7-7-7-7-7-7--|---------------------------------|
E|--------------------------------|---3---3---3---3---3---3-2-3-5-7-|

G|--------------------------------|---------------------------------|
D|--------------------------------|---------------------------------|
A|--7--7--7-7-7-5-5h7-5h7-5h7-5h7-|--7---7-7-7---7---7-7-7-7-7-7-7--|
E|--------------------------------|---------------------------------|

G|--------------------------------|---------------------------------|
D|--------------------------------|---------------------------------|
A|-5h7-7-7-5h7-7-7-5h7-5h7-5h7-5h7|--7---7---7---7-7-7-7-7-7-7-7-7--|
E|--------------------------------|---------------------------------|

G|--------------------------------|---------------------------------|
D|--------------------------------|---------------------------------|
A|-5h7-7-7-5h7-5h7-----5h7----5h7-|---------------------------------|
E|-----------------5h7----5h7-----|--3---3---3---3---3---3---3---3--|

G|--------------------------------|
D|--------------------------------|
A|--------------------------------|
E|--5~----------------------------|

[02:18]
G|--------------------------------|---------------------------------|
D|--------------------------------|-----------------5-4-------------|
A|--5h7-7-7-7-7-7-7-7-7-7-7-7-7-7-|----------------------7-5-4------|
E|--------------------------------|--5--5--5--5----------------7-5--|

G|--------------------------------|---------------------------------|
D|--------------------------------|-----------------5-4-------------|
A|-----------------5-4-2-0--------|----------------------7-5-4------|
E|--0--0--0--0-------------4-2-0--|--5--5--5--5----------------7-5--|

G|--------------------------------|
D|--------------------------------|
A|--------------------------------|
E|--0~----------------------------|

[02:33]
G|--------------------------------|---------------------------------|
D|--------------------------------|---------------------------------|
A|--7-7-7-7-7-7-7-7-7-7-7-7-7-7-7-|-7-7-7-7-7-7-7-7-5h7-5h7-5h7-5h7-|
E|--------------------------------|---------------------------------|

G|--------------------------------|---------------------------------|
D|--------------------------------|---------------------------------|
A|-7-7-7-7-7-7-7-7-5h7-5h7-5h7-5h7|--7-7-7-7-7-7-7-7-----5h7-----5h7|
E|--------------------------------|------------------5h7-----5h7----|

G|--------------------------------|---------------------------------|
D|--------------------------------|---------------------------------|
A|-7-7-7-7-7-7-7-7-----5h7-----5h7|-7-7-7-7-7-7-7-7------5h7-----5h7|
E|-----------------5h7-----5h7----|------------------5h7-----5h7----|

G|--------------------------------|---------------------------------|
D|--------------------------------|---------------------------------|
A|-7-7-7-7-7-7-7-7-----5h7-----5h7|-7-7-7-7-7-7-7-7------5h7-----5h7|
E|-----------------5h7-----5h7----|------------------5h7-----5h7----|

G|--------------------------------|---------------------------------|
D|--------------------------------|---------------------------------|
A|--------------------------------|---------------------------------|
E|--0~----------------------------|---------------------------------|

[03:09]
G|--------------------------------|---------------------------------|
D|------------14~-----------------|---------------------------------|
A|--------------------------------|-7-7-7-7-7-7-7-7-5h7-7-7-7p5-5h7-|
E|--0~---------------0~-----------|---------------------------------|

G|--------------------------------|---------------------------------|
D|--------------------------------|---------------------------------|
A|-7-7-7-7-7p5-5-5-5h7-5h7-5h7-5h7|-----5h-7-----5h-7-7-7-7-7-7-5-7-|
E|--------------------------------|-5h7------5h7--------------------|

G|--------------------------------|-------------------7h9-9---------|
D|--------------------------------|------------6/7h9----------------|
A|-7-7-7-7-7-7-7-7-5h7-5h7-5h7-5h7|-7-7-7-7-7---------------7p5-5h7-|
E|--------------------------------|---------------------------------|

G|-------------------7h9-9--------|-------------------7h9-9---------|
D|------------6/7h9---------------|------------6/7h9----------------|
A|-7-7-7-7-7---------------7p5-5h7|-7-7-7-7-7---------------7p5-5h7-|
E|--------------------------------|---------------------------------|

G|-----------------------7---9----|-------------------7-9p7-9p7-9p7-|
D|------------------6-9-----------|---------------6-9---------------|
A|--7-7-7-7-7-7-7-----------------|-7-7-7-7-7-7-7-------------------|
E|--------------------------------|---------------------------------|

[Fading Out]
G|-9p7-9p7-9p7-9p7-9p7-9p7-9p7-9p7-|
D|---------------------------------|
A|---------------------------------|
E|---------------------------------|

[Fading In]
G|--------------------------7h-9-|--------------------------7h-9-|
D|---------------------5h-7------|---------------------5h-7------|
A|-7-7-7-7-7-7-7-7-7-7-----------|-7-7-7-7-7-7-7-7-7-7-----------|
E|-------------------------------|-------------------------------|

G|--------------------------7h-9-|--------------------------7h-9-|
D|---------------------5h-7------|---------------------5h-7------|
A|-7-7-7-7-7-7-7-7-7-7-----------|-7-7-7-7-7-7-7-7-7-7-----------|
E|-------------------------------|-------------------------------|

G|--------------------------7h-9-|-------------------------------|
D|---------------------5h-7------|-------------------------------|
A|-7-7-7-7-7-7-7-7-7-7-----------|-7-7-7-7-7-7-7-7---------------|
E|-------------------------------|------------------9--7----5-4--|

G|-------------------------------|-------------------------------|
D|-------------------------------|-------------------------------|
A|-------------------------------|----7\-----7\-----7\-----7\----|
E|--2-0--2-0--2-0-----2-0--2-----|-------------------------------|

G|-------------------------------|----------9\-------------------|
D|-------------------------------|-------------------------------|
A|--7--7--7--7--7--7--7--7--7--7-|-------------------------------|
E|-------------------------------|--0~----------9\------0-------0|


************************************

| p  Pull-off
| h  Hammer-on
| ~  Vibrato
| \  Slide down
| /  Slide up

************************************

            
            
Suggest correction
Creating personal tab
Creating personal tab
You can edit any tab online and save it as your Personal.

You can edit, replace or remove any tab part or add personal notes – all changes will be seen only by you.

Personal tabs can be accessed anytime from any device, even offline.
Learn more »
comments
print report bad tab
guest
You may want to rate the tab now too:
select rating
Wanna post a correction for this tab? Suggest correction