Oops, an error
Loading. Please wait.
We have an official Here Comes The Sun tab made by UG professional guitarists. Check out the tab »
×

Here Comes The Sun bass

4,441 views 30 this week
no commentswrite comment
1 2 3 4 5
x 3
add to favorites
×
Save as Personal and add changes to this tab that will be seen only by you. Learn more ›
×
You can save this tab as Personal to edit and correct it or add notes. All changes will be seen only by you. Learn more »
launch autoscroll
font size
0
reset
guitar tuner
backing track
0:00
0:00
edit
Autoscroll
slow
fast
+/-
esc
set tempo
stop
Author
       -------------------------------------------------------

                  THE BEATLES – HERE COMES THE SUN
                          George Harrison
           From ABBEY ROAD, released on September 26, 1969

       -------------------------------------------------------





  Here comes the sun, here comes the sun
  And I say it's alright

  Little darling, it's been a long cold lonely winter
  Little darling, it feels like years since it's been here

  Here comes the sun, here comes the sun
  And I say it's alright

  Little darling, the smiles returning to the faces
  Little darling, it seems like years since it's been here 

  Here comes the sun, here comes the sun
  And I say it's alright

  Sun, sun, sun, here it comes
  Sun, sun, sun, here it comes
  Sun, sun, sun, here it comes
  Sun, sun, sun, here it comes
  Sun, sun, sun, here it comes

  Little darling, I feel that ice is slowly melting
  Little darling, it seems like years since it's been clear

  Here comes the sun, here comes the sun
  And I say it's alright
  Here comes the sun, here comes the sun
  It's alright, it's alright





    INTRO

  G|-------------------------------|-------------------------------|
  D|-------------------------------|-------------------------------|
  A|-------------------------------|-------------------------------|
  E|-------------------------------|-------------------------------|





  G|-------------------------------|-------------------------------|
  D|-------------------------------|-------------------------------|
  A|-------------------------------|-------------------------------|
  E|-------------------------------|-------------------------------|





  G|-------------------------------|-------------------------------|
  D|-------------------------------|-------------------------------|
  A|-------------------------------|-------------------------------|
  E|-------------------------------|-------------------------------|





  G|-------------------------------|-------------------------------|
  D|-------------------------------|-------------------------------|
  A|-------------------------------|-------------------------------|
  E|-------------------------------|-------------------------------|




    CHORUS

  G|-------------------------------|-------------------------------|
  D|-------------------------------|-------------------------------|
  A|-------------------------------|-------------------------------|
  E|-------------------------------|-------------------------------|
            Here        the     sun
                comes




  G|-------------------------------|-------------------------------|
  D|-------------------------------|-------------------------------|
  A|-------------------------------|-------------------------------|
  E|-------------------------------|-------------------------------|
            Here        the     sun         and I           say
                comes




  G|-------------------------------|-------------------------------|
  D|-------------------------------|-------------------------------|
  A|-------------------------------|5-----------4-----------2------|
  E|-------------------------------|-------------------------------|
        It's    alright




  G|-------------------------------|
  D|----------------------------2--|
  A|----0---------------0---4------|
  E|----------------0--------------|




    VERSE

  G|-------------------------------|-------------------------------|
  D|7-----------7---7---7----------|7------(7)--7-------7---7-\----|
  A|---------------------------(7)-|-------------------------------|
  E|-------------------------------|-------------------------------|
            Little  darling             It's    been    a       long




  G|-------------------------------|-------------------------------|
  D|-------------------------------|----------------------------6--|
  A|5-------4---5-------5---5------|7-------7---7-------7---9------|
  E|-------------------------------|-------------------------------|
        cold    lonely      winter




  G|-------------------------------|-------------------------------|
  D|7-------7---7-------7-------7--|7-------7---7-------4----------|
  A|-------------------------------|------------------------7---4--|
  E|-------------------------------|-------------------------------|
            Little  darling             It      feels   like    years




  G|-------------------------------|-------------------------------|
  D|-------------------------------|----------------------------6--|
  A|5-------5---5-------4---5---0--|7-------7---7-------7---9------|
  E|-------------------------------|-------------------------------|
            since       been    here
                it's



    CHORUS

  G|-------------------------------|-------------------------------|
  D|7-------7---7-------7----------|7-------7---7-------4----------|
  A|----------------------------7--|------------------------7---4--|
  E|-------------------------------|-------------------------------|
            Here        the     sun
                comes




  G|-------------------------------|-------------------------------|
  D|-------------------------------|-------------------------------|
  A|5-------5---5-------5---5---4--|-------------------------------|
  E|-------------------------------|7-------7---7-------7---7---9--|
            Here        the     sun         and I           say
                comes




  G|-------------------------------|-------------------------------|
  D|-------------------------------|-------------------------------|
  A|7---0---0---0---0---4---5---7--|5-----------4-----------2------|
  E|-------------------------------|-------------------------------|
        It's    alright




  G|-------------------------------|-------------------------------|
  D|----------------------------2--|7-----------7---7---7----------|
  A|----0---------------0---4------|----------------------------6--|
  E|----------------0--------------|-------------------------------|





  G|-------------------------------|
  D|-------------------------------|
  A|7---7---7-----------7---7---x--|
  E|-------------------------------|




    VERSE

  G|-------------------------------|-------------------------------|
  D|7-----------7---7---7----------|7-----------7---7---7----------|
  A|-------------------------------|----------------------------x--|
  E|-------------------------------|-------------------------------|
            Little  darling             The     smiles      returning




  G|-------------------------------|-------------------------------|
  D|-------------------------------|------------------------6------|
  A|5-----------5-------5---5---0--|7-----------7-------7-7-----7--|
  E|-------------------------------|-------------------------------|
                to      the faces




  G|-------------------------------|-------------------------------|
  D|7-----------7-------7-------x--|7-----------7-------7----------|
  A|-------------------------------|----------------------------4--|
  E|-------------------------------|-------------------------------|
            Little  darling             It      feels   like    years




  G|-------------------------------|-------------------------------|
  D|-------------------------------|------------------------6------|
  A|5-----------5-------5---5---0--|7-----------7-------7-7-----7--|
  E|-------------------------------|-------------------------------|
            since       been    here
                it's



    CHORUS

  G|-------------------------------|-------------------------------|
  D|7-------x---7-------7----------|7-----------7-------4----------|
  A|----------------------------7--|------------------------7---4--|
  E|-------------------------------|-------------------------------|
            Here        the     sun
                comes




  G|-------------------------------|-------------------------------|
  D|-------------------------------|-------------------------------|
  A|5-------x---5-------7---5---4--|----------------------------7--|
  E|-------------------------------|7-----------7-------9----------|
            Here        the     sun         and I           say
                comes




  G|-------------------------------|-------------------------------|
  D|------------------------4---7--|-------------------------------|
  A|0---0---0---4---5---7----------|5-----------4-----------2------|
  E|-------------------------------|-------------------------------|
        It's    alright




  G|-------------------------------|-------------------------------|
  D|----------------------------2--|7-------7---7-------7---7------|
  A|----0---------------0---4------|----------------------------6--|
  E|----------------0--------------|-------------------------------|





  G|---------------|-----------|
  D|---------------|-----------|
  A|7-------7------|-----------|
  E|---------------|-----------|




    BRIDGE

  G|5----------------------|-------------------|
  D|------------5----------|4---------------4--|
  A|-----------------------|------------7------|
  E|-----------------------|-------------------|





  G|-------------------------------|---------------------------|
  D|7-------7-------7---7---7------|--------------------6---9--|
  A|----------------------------6--|7---7---7-------7----------|
  E|-------------------------------|---------------------------|





  G|5----------------------|-------------------|
  D|------------5----------|4---------------4--|
  A|-----------------------|------------7------|
  E|-----------------------|-------------------|
    Sun,        sun,        sun         here
                                            it




  G|-------------------------------|---------------------------|
  D|7-------7-------7---7---7------|--------------------6---9--|
  A|----------------------------6--|7---7---7-------7----------|
  E|-------------------------------|---------------------------|
    comes




  G|5----------------------|-------------------|
  D|------------5----------|4---------------4--|
  A|-----------------------|------------7------|
  E|-----------------------|-------------------|
    Sun,        sun,        sun         here
                                            it




  G|-------------------------------|---------------------------|
  D|7-------7-------7---7---7------|--------------------6---9--|
  A|----------------------------6--|7---7---7-------7----------|
  E|-------------------------------|---------------------------|
    comes




  G|5----------------------|-------------------|
  D|------------5----------|4---------------4--|
  A|-----------------------|------------7------|
  E|-----------------------|-------------------|
    Sun,        sun,        sun         here
                                            it




  G|-------------------------------|---------------------------|
  D|7-------7-------7---7---7------|--------------------6---9--|
  A|----------------------------6--|7---7---7-------7----------|
  E|-------------------------------|---------------------------|
    comes




  G|5----------------------|-------------------|
  D|------------5----------|4---------------4--|
  A|-----------------------|------------7------|
  E|-----------------------|-------------------|
    Sun,        sun,        sun         here
                                            it




  G|-------------------------------|------------9-9-9----------|
  D|7-------7-------7---7---7------|------------------------6--|
  A|----------------------------6--|7---7---7-----------7------|
  E|-------------------------------|---------------------------|
    comes




  G|5----------------------|-------------------|
  D|------------5----------|4---------------4--|
  A|-----------------------|------------7------|
  E|-----------------------|-------------------|
    Sun,        sun,        sun         here
                                            it




  G|-------------------------------|-------------------------------|
  D|7-------7-------7---7---7------|-------------------------------|
  A|----------------------------6--|7---7---7---7---7---7---7---7--|
  E|-------------------------------|-------------------------------|
    comes




  G|-------------------------------|-------------------------------|
  D|-------------------------------|-------------------------------|
  A|7---7---7---7---7---7---7---7--|7---7---7---7---7---7---7---7--|
  E|-------------------------------|-------------------------------|





  G|-------------------------------|
  D|-------------------------------|
  A|7---7---7---7---7---7---7------|
  E|-------------------------------|




    VERSE

  G|-------------------------------|-------------------------------|
  D|7-----------7---7---7-------7--|7-----------7-7-7---7----------|
  A|-------------------------------|----------------------------4--|
  E|-------------------------------|-------------------------------|
            Little  darling             I       feel    that    ice




  G|-------------------------------|-------------------------------|
  D|-------------------------------|------------------------6------|
  A|5-----------5---5---5----------|7-----------7---7---9-------7--|
  E|-------------------------------|-------------------------------|
        is      slowly      melting




  G|-------------------------------|-------------------------------|
  D|7-----------7---7---7----------|7-----------7---7---7----------|
  A|-------------------------------|----------------------------0--|
  E|-------------------------------|-------------------------------|
            Little  darling             It      feels   like    years




  G|-------------------------------|-------------------------------|
  D|-------------------------------|------------------------6------|
  A|5-----------5---5---5-------0--|7-----------7-7-7---9-------7--|
  E|-------------------------------|-------------------------------|
            since       been    clear
                it's



    CHORUS

  G|-------------------------------|-------------------------------|
  D|7-----------7---7---7----------|7-----------7-7-7---4----------|
  A|-------------------------------|------------------------7---4--|
  E|-------------------------------|-------------------------------|
            Here        the     sun
                comes




  G|-------------------------------|-------------------------------|
  D|-------------------------------|-------------------------------|
  A|5-----------5-5-5---7---5---4--|--------------------4---5---7--|
  E|-------------------------------|7---7---7---7---7--------------|
            Here        the     sun         and I           say
                comes




  G|-------------------------------|-------------------------------|
  D|-------------------------------|-------------------------------|
  A|0---0-------0---0---4---5---7--|5-----------4-----------2------|
  E|-------------------------------|-------------------------------|
        It's    alright




  G|-------------------------------|
  D|----------------------------2--|
  A|----0---------------0---4------|
  E|----------------0--------------|




    OUTRO

  G|-------------------------------|-------------------------------|
  D|7-------7---7-------7---7------|7-------7---7-------7---7------|
  A|-------------------------------|----------------------------4--|
  E|-------------------------------|-------------------------------|
            Here        the     sun
                comes




  G|-------------------------------|-------------------------------|
  D|-------------------------------|-------------------------------|
  A|5-------5---5-------7---5---4--|--------------------4---5---7--|
  E|-------------------------------|7---7---7---7---7--------------|
            Here        the     sun
                comes




  G|-------------------------------|-------------------------------|
  D|------------------------4---7--|-------------------------------|
  A|0---0---0---4---5---7----------|5-----------4-----------2------|
  E|-------------------------------|-------------------------------|
        It's    alright




  G|-------------------------------|-------------------------------|
  D|----------------------------2--|7-------7---4------------------|
  A|----0---------------0---4------|--------------------7---4------|
  E|----------------0--------------|-------------------------------|
                                            It's
                                                alright
        



  G|-------------------------------|-------------------------------|
  D|-------------------------------|----------------------------2--|
  A|5-----------4-----------2------|----0---------------0---4------|
  E|-------------------------------|----------------0--------------|





  G|-------------------------------|-------------------------------|
  D|-------------------------------|-------------------------------|
  A|4------------------------------|-------------------------------|
  E|-------------------------------|-------------------------------|

            
            
Suggest correction
Creating personal tab
Creating personal tab
You can edit any tab online and save it as your Personal.

You can edit, replace or remove any tab part or add personal notes – all changes will be seen only by you.

Personal tabs can be accessed anytime from any device, even offline.
Learn more »
Give kudos to tab author, rate the tab!
1 2 3 4 5
comments
print report bad tab
guest
You may want to rate the tab now too:
select rating
Wanna post a correction for this tab? Suggest correction