Oops, an error
Loading. Please wait.
We have an official Hey Bulldog tab made by UG professional guitarists. Check out the tab »
×

Hey Bulldog intro tab

version 1
version 1

Intro

  • My version of this tab is different to others I ha... Show more

Whole song

Interactive

349 views 9 this week
no commentswrite comment
1 2 3 4 5
x 3
add to favorites
×
Save as Personal and add changes to this tab that will be seen only by you. Learn more ›
×
You can save this tab as Personal to edit and correct it or add notes. All changes will be seen only by you. Learn more »
launch autoscroll
font size
0
reset
how to read this tab
guitar tuner
backing track
0:00
0:00
edit
Autoscroll
slow
fast
+/-
esc
set tempo
stop
Author
Difficulty
About this tab version
My version of this tab is different to others I have seen, as the first half of my tab is played in a different location on the fret board but still sounding the same. This is useful as the second half of the tab is right below it on the fret board, making it easier for the musician to play the intro. Was this info helpful? Yes No
e|-------------------------------|-------------------------------|
B|-------------------------------|-------------------------------|
G|-------------------------------|-------------------------------|
D|--------0----------------------|--------0---------------------0|
A|--------------7------8-----9---|-------------9-------8----7----|
E|7---7-------7------7-----------|7---7------7-------7-----------| ...

e|-------------------------------|-------------------------------|
B|-------------------------------|-------------------------------|
G|--------7-----9------10----11--|--------7----11------10----9--7|
D|9---9-------9------9-----------|9---9------9-------9-----------|
A|-------------------------------|-------------------------------|
E|-------------------------------|-------------------------------|

            
            
Suggest correction
Creating personal tab
Creating personal tab
You can edit any tab online and save it as your Personal.

You can edit, replace or remove any tab part or add personal notes – all changes will be seen only by you.

Personal tabs can be accessed anytime from any device, even offline.
Learn more »
Give kudos to tab author, rate the tab!
1 2 3 4 5
comments
print report bad tab
guest
You may want to rate the tab now too:
select rating
Wanna post a correction for this tab? Suggest correction