Oops, an error
Loading. Please wait.
We have an official Honey Dont tab made by UG professional guitarists. Check out the tab »
×
5,190 views 3 this week
no commentswrite comment
1 2 3 4 5
x 3
add to favorites
×
Save as Personal and add changes to this tab that will be seen only by you. Learn more ›
×
You can save this tab as Personal to edit and correct it or add notes. All changes will be seen only by you. Learn more »
launch autoscroll
font size
0
reset
guitar tuner
edit
Autoscroll
slow
fast
+/-
esc
set tempo
stop
Author
Honey Don't
The Beatles
Written by Carl Perkins; released on "Beatles For Sale" album.

Good rockabilly song, sung by Ringo. Nice bassline by Paul :-)

Intro:
G|------ ------ ------ ------|------ ------ ------ ------|
D|---------------------------|---------------------------|
A|---------------------------|---------------------------|
E|---------------------------|---------------------------|



G|------ ------ ------ ------|------ ------ ------ 6-----|
D|---------------------------|-------6------9------------|
A|---------------------------|7--------------------------|
E|---------------------------|---------------------------|



G|9----- 6----- ------ ------|
D|--------------9------6-----|
A|---------------------------|
E|---------------------------|
                    Well,  how

Verse:
G|------ ------ ------ ------|------ ------ ------ ------|
D|---------------------------|---------------------------|
A|7--------------------------|------------------7--7-----|
E|---------------------------|---------------------------|
      come   you say   you will   when   won't,
                                     you

G|------ ------ ------ ------|------ ------ ------ ------|
D|---------------------------|---------------------------|
A|---------------------------|---------------------------|
E|8--------------------------|------------------8--8-----|
         say you do,   ba- by when you   don't


G|------ ------ ------ ------|------ ------ ------ ------|
D|---------------------------|---------------------------|
A|7--------------------------|------------------7--7-----|
E|---------------------------|---------------------------|
         Let me know,  honey, how you    feel,


G|------ ------ ------ ------|------ ------ ------ ------|
D|---------------------------|---------------------------|
A|---------------------------|---------------------------|
E|8--------------------------|---------------------------|
         tell truth    now,   is  love   real?     But oh,
             the

G|------ ------ ------ ------|------ ------ ------ ------|
D|9------7-------------7-----|9---9--7------6------------|
A|--------------9------------|---------------------9-----|
E|---------------------------|---------------------------|
      oh,                            well,      honey, don't


G|----9- ------ ------ 6-----|9----- 6----- ------ ------|
D|-------6------9------------|--------------9------6-----|
A|7--------------------------|---------------------------|
E|---------------------------|---------------------------|
                                     Well,      honey, don't

Refrain:
G|------ ------ ------ 6-----|9----- 6---6- ------ ------|
D|-------6------9------------|--------------9------6---9-|
A|7--------------------------|---------------------------|
E|---------------------------|---------------------------|
                                                honey, don't


G|------ ------ ------ ------|------ ------ ------ ------|
D|-------6------9------6-----|---------------------------|
A|7--------------------------|7------5------4------------|
E|---------------------------|---------------------7-----|
                                                Honey, don't


G|------ ------ ------ ------|------ ------ ------ ------|
D|---------------------4-----|7------4-------------------|
A|-------4------7------------|--------------7------4---4-|
E|5--------------------------|---------------------------|
                                                honey, don't


G|------ ------ ------ 6-----|9----- 6----- ------ ------|
D|-------6------9------------|--------------9------6---6-|
A|7--------------------------|---------------------------|
E|---------------------------|---------------------------|
                                                Oh, say you


G|------ ------ ------ ------|------ ------ ------ ------|
D|9------9-------------------|9------7------6------------|
A|--------------9------9-----|---------------------9-----|
E|---------------------------|---------------------------|
  will   you won't,        oh,    oh,           honey, don't
      when

G|------ ------ ------ ------|------ ------ ------ ------|
D|-------6------7------8-----|9------7------6------------|
A|7--------------------------|---------------------9-----|
E|---------------------------|---------------------------|
                                                Well, I

Verse:
G|------ ------ ------ ------|------ ------ ------ ------|
D|---------------------------|---------------------------|
A|7--------------------------|------------------7--7-----|
E|---------------------------|---------------------------|
  love   you,   baby,  and    ought  to  know,
                           you

G|------ ------ ------ ------|------ ------ ------ ------|
D|---------------------------|---------------------------|
A|---------------------------|---------------------------|
E|8--------------------------|------------------8--8-----|
      I  like   way    that   wear   your clothes      If
             the           you

G|------ ------ ------ ------|------ ------ ------ ------|
D|---------------------------|---------------------------|
A|7--------------------------|------------------7--7-----|
E|---------------------------|---------------------------|
         in  a  batch  wear,  dough  sweet,            you
      it's          you    so     on

G|------ ------ ------ ------|------ ------ ------ ------|
D|---------------------------|---------------------------|
A|---------------------------|---------------------------|
E|8--------------------------|------------------8--8-----|
  got    that   sand   all    o- ver your feet,    But oh,


G|------ ------ ------ ------|------ ------ ------ ------|
D|9------7-------------7-----|9---9--7------6---6--------|
A|--------------9------------|---------------------9-----|
E|---------------------------|---------------------------|
      oh,                     well,             honey, don't


G|------ ------ ------ 6-----|9----- 6----- ------ ------|
D|-------6------9------------|--------------9------6---9-|
A|7--------------------------|---------------------------|
E|---------------------------|---------------------------|
                                                Honey, don't

Refrain:
G|------ ------ ------ 6-----|9---9- 6----- ------ ------|
D|-------6------9------------|--------------9------6---9-|
A|7--------------------------|---------------------------|
E|---------------------------|---------------------------|
                                                honey, don't


G|------ ------ ------ 6-----|9---9- 6----- ------ ------|
D|-------6------9------------|--------------9------6-----|
A|7--------------------------|---------------------------|
E|---------------------------|---------------------------|
                                                Honey, don't


G|------ ------ ------ ------|------ ------ ------ ------|
D|7--------------------------|---------------------------|
A|--------------7------9-----|10-----9------7------------|
E|-------9-------------------|---------------------9-----|
                                                honey, don't


G|------ ------ ------ 6-----|7----- 6----- ------ ------|
D|-------6------9----------6-|--------------9------6-----|
A|7--------------------------|---------------------------|
E|---------------------------|---------------------------|
                                                Oh, say you


G|------ ------ ------ ------|------ ------ ------ ------|
D|9------9-----------------7-|9------7------6------------|
A|--------------9------9-----|---------------------9-----|
E|---------------------------|---------------------------|
  will   you won't,        oh,    oh,           honey, don't
      when

G|------ ------ ------ 6---6-|9----- 6----- 4----- ----4-|
D|-------6------9------------|---------------------6-----|
A|7--------------------------|---------------------------|
E|---------------------------|---------------------------|
             Ah, rock on George, one time for me!

Break (solo):
G|------ ------ ------ ------|------ ------ ------ ------|
D|2------2-------------------|2------2-------------2-----|
A|--------------2------2-----|--------------2------------|
E|---------------------------|---------------------------|



G|------ ------ ------ ------|------ ------ ------ ------|
D|---------------------------|---------------------------|
A|3------3-----------------2-|3------3-------------3-----|
E|--------------3------3-----|--------------3------------|



G|------ ------ ------ ------|------ ------ ------ ------|
D|2------2-----------------1-|2------2---2---------2-----|
A|--------------2------2-----|--------------2------------|
E|---------------------------|---------------------------|



G|------ ------ ------ ------|------ ------ ------ ------|
D|---------------------------|---------------------------|
A|3------3-------------3-----|2------0-------------------|
E|--------------3------------|--------------4------2-----|
                                         I      feel   fine!

Refrain:
G|------ 1----- 4----- 6-----|9----- 6----- ------ ------|
D|2------------------------6-|--------------9------6---9-|
A|---------------------------|---------------------------|
E|---------------------------|---------------------------|



G|------ ------ ------ 6-----|9----- 6----- ------ ------|
D|-------6------9------------|--------------9------6---9-|
A|7--------------------------|---------------------------|
E|---------------------------|---------------------------|



G|------ ------ ------ ------|------ ------ ------ ------|
D|7--------------------------|7--------------------------|
A|--------------7------9-----|-------9------7------4-5-6-|
E|-------9-------------------|---------------------------|
                              Mmmmmmmm-


G|------ ------ ------ 6-----|9----- 6----- ------ ------|
D|-------6------9------------|--------------9------6---7-|
A|7--------------------------|---------------------------|
E|---------------------------|---------------------------|
  mmm


G|------ ------ ------ ------|------ ------ ------ ------|
D|9------9-----------------7-|9------7------6------------|
A|--------------9------9-----|---------------------9-----|
E|---------------------------|---------------------------|
             I      said


G|----9- ------ ------ ------|------ ------ ------ ------|
D|-------6------7------8-----|9------7------6------------|
A|7--------------------------|---------------------9-----|
E|---------------------------|---------------------------|
                                                Well,

Verse:
G|------ ------ ------ ------|------ ------ ------ ------|
D|---------------------------|---------------------------|
A|7--------------------------|------------------7--7-----|
E|---------------------------|---------------------------|
  some - times  love   on  a  Saturday   night,
             I      you

G|------ ------ ------ ------|------ ------ ------ ------|
D|---------------------------|---------------------------|
A|---------------------------|---------------------------|
E|8--------------------------|------------------8--8-----|
         Sunday morning you       look   bright
                           don't

G|------ ------ ------ ------|------ ------ ------ ------|
D|---------------------------|---------------------------|
A|7--------------------------|------------------7--7-----|
E|---------------------------|---------------------------|
      You've    out,          painting the town,
         been

G|------ ------ ------ ------|------ ------ ------ ------|
D|---------------------------|---------------------------|
A|---------------------------|---------------------------|
E|8--------------------------|------------------8--8-----|
  oh,    oh,    ba- by been   steppin' around,     But oh,


G|------ ------ ------ ------|------ ------ ------ ------|
D|9------7-------------7-----|9---9--7------6------------|
A|--------------9------------|---------------------9-----|
E|---------------------------|---------------------------|
      oh,                     well,             honey, don't


G|----9- ------ ------ 6-----|9---9- 6----- ------ ------|
D|-------6------9------------|--------------9------6---9-|
A|7--------------------------|---------------------------|
E|---------------------------|---------------------------|
                           I      said:         honey, don't

Refrain:
G|------ ------ ------ 6-----|7---7- 6----- ------ ------|
D|-------6------9------------|--------------9------6---9-|
A|7--------------------------|---------------------------|
E|---------------------------|---------------------------|
                                                honey, don't


G|------ ------ ------ 6-----|7----- 6----- ------ ------|
D|-------6------9------------|--------------9------6---9-|
A|7--------------------------|---------------------------|
E|---------------------------|---------------------------|
                                                Honey, don't


G|------ ------ ------ ------|------ ------ ------ ------|
D|7--------------------------|---------------------------|
A|--------------7------9-----|10-----9------7------------|
E|-------9-------------------|---------------------9---9-|
                                                honey, don't


G|------ ------ ------ 6-----|7----- 6---6- ------ ------|
D|-------6------9----------6-|--------------9------6---6-|
A|7--------------------------|---------------------------|
E|---------------------------|---------------------------|
                                                Oh, say you


G|------ ------ ------ ------|------ ------ ------ ------|
D|9------9-----------------7-|9------7------6------------|
A|--------------9------9-----|---------------------9-----|
E|---------------------------|---------------------------|
  will   you won't,        oh,    oh,           honey, don't
      when

G|----9- ------ ------ 6-----|9---9- 6----- ------ ------|
D|-------6------9------------|--------------9------6---9-|
A|7--------------------------|---------------------------|
E|---------------------------|---------------------------|
             Ah, rock on George, for Ringo one time!

Break (solo):
G|------ ------ ------ ------|------ ------ ------ ------|
D|---------------------------|---------------------------|
A|7------7------7------7-----|7------7------7---7--7-----|
E|---------------------------|---------------------------|



G|------ ------ ------ ------|------ ------ ------ ------|
D|---------------------------|---------------------------|
A|---------------------------|---------------------------|
E|8------8------8------8-----|8------8------8---8--8-----|



G|------ ------ ------ ------|------ ------ ------ ------|
D|---------------------------|---------------------------|
A|7------7---7--7---7--7-----|7------7------7---7--7-----|
E|---------------------------|---------------------------|



G|------ ------ ------ ------|------ ------ ------ ------|
D|---------------------------|---------------------------|
A|---------------------------|---------------------------|
E|8------8------8------8---8-|7------5------4------2-----|


Refrain:
G|------ 1----- 4----- 6-----|9---9- 6----- ------ ------|
D|2--------------------------|--------------9------6---9-|
A|---------------------------|---------------------------|
E|---------------------------|---------------------------|
                                            Well, honey, don't


G|------ ------ ------ 6-----|9---9- 6----- ------ ------|
D|-------6------9------------|--------------9------6---9-|
A|7--------------------------|---------------------------|
E|---------------------------|---------------------------|
                              Well,                honey,


G|------ ------ ------ ------|------ ------ ------ ------|
D|7--------------------------|---------------------------|
A|--------------7------9-----|10-----9---9--7------------|
E|-------9-------------------|---------------------9-----|
  don't                           oh, little, little honey


G|------ ------ ------ 6-----|7----- 6----- ------ ------|
D|-------6------9----------6-|-----------6--9------6---6-|
A|7--------------------------|---------------------------|
E|---------------------------|---------------------------|
  don't                                         Oh, say you


G|------ ------ ------ ------|------ ------ ------ ------|
D|9------7-------------7-----|9------7------6------------|
A|--------------9------------|---------------------9-----|
E|---------------------------|---------------------------|
  will   you won't,        oh,    oh,           honey, don't
      when

G|------ ------ ------ ------|------ ------ ------ 9-----|
D|-------6------7------8-----|9------9-------------------|
A|7--------------------------|-----------7---------7-----|
E|---------------------------|---------------------------|

Please e-mail me for any corrections, or write a comment.

            
            
Suggest correction
Creating personal tab
Creating personal tab
You can edit any tab online and save it as your Personal.

You can edit, replace or remove any tab part or add personal notes – all changes will be seen only by you.

Personal tabs can be accessed anytime from any device, even offline.
Learn more »
Give kudos to tab author, rate the tab!
1 2 3 4 5
comments
print report bad tab
guest
You may want to rate the tab now too:
select rating
Wanna post a correction for this tab? Suggest correction