Oops, an error
Loading. Please wait.

I Call Your Name tab

version 3
version 3

Whole song

Interactive

196 views 1 this week
no commentswrite comment
1 2 3 4 5
3 more votes to show rating
add to favorites
×
Save as Personal and add changes to this tab that will be seen only by you. Learn more ›
×
You can save this tab as Personal to edit and correct it or add notes. All changes will be seen only by you. Learn more »
launch autoscroll
font size
0
reset
how to read this tab
guitar tuner
backing track
0:00
0:00
edit
Autoscroll
slow
fast
+/-
esc
set tempo
stop
Author
Difficulty
I CALL YOUR NAME

As recorded by The Beatles
(From the 1964 Album PAST MASTERS VOL. 1)

Words & Muisc by John Lennon & Paul McCartney

Transcribed by Slowhand


Gtr I (E A D G B E) - 'George Harrison - Electric 12-string Guitar'
Gtr II (E A D G B E) - 'John Lennon - Electric Guitar'


 Intro
  Q=134
  N.C.        F7  F#7               B7          E7
 4/4
  Gtr I (El. 12-string Gtr.)
  Q  Q  E E E E   +W                 E Q    E E E E E
|---------------|-----------------|-------------------|
|-------------7-|-(7)-------------|----8------8-------|
|-------8-9-----|-----------------|---------9---9-7---|
|----9----------|-----------------|-----------------9-|
|---------------|-----------------|-------------------|
|---------------|-----------------|-------------------|
|
| Gtr II (El. Gtr.)
| H     Q   E E    Q   q  E E E E    Q    q   E E E E
|-------------1-|--2---2----2---2-|--7----7-----0---0-|
|-------------4-|--5---5----5---5-|-10---10-----3---3-|
|-------------2-|--3---3----3---3-|--8----8-----1---1-|
|-------------1-|--2---2----2---2-|--7----7-----0---0-|
|-------------3-|--4---4----4---4-|--9----9-----2---2-|
|-------------1-|--2---2----2---2-|--7----7-----0---0-|


                                     1st Verse
            B7                           E7
  Q  Q  S S E E E   W                 Q  E E q   E E   +E  E E E E E Q
|-----------------|----------------||----------------|------------------|
|-----------------|----------------||----------------|------------------|
|-9--9--9p7-------|-8--------------||----9---7-------|-------9---7------|
|-----------9-7-9-|----------------||------9---------|---------9---9----|
|-----------------|----------------||-7------------7-|-(7)-7------------|
|-----------------|----------------||----------------|------------------|
|
| Q  q  E   E E E   Q  q  E E +Q      Q  q   E E E E   +Q    q   E E Q
|-0--0------2---2-|-2--2----2-(2)--||----0-----0---0-|-(0)---0-----0----|
|-3--3------0---0-|-0--0----0-(0)--||----0-----0---0-|-(0)---0-----0----|
|-1--1------2---2-|-2--2----2-(2)--||----1-----1---1-|-(1)---1-----1----|
|-0--0------1---1-|-1--1----1-(1)--||----0-----0---0-|-(0)---0-----0----|
|-2--2------2---2-|-2--2----2-(2)--||----2-----2---2-|-(2)---2-----2----|
|-0--0------------|----------------||----0-----0---0-|-(0)---0-----0----|


      C#7                                  F#7
  E E E E E E E E   +E  E E E E E Q    E E E E E E E E    E  E q  E E Q
|-----4-----4-----|-------4-----4----|-----6-6---6-----|-------6----6-----|
|-------4-7-------|---------4-7------|-7-7-----7-----7-|--7--7----7-------|
|-6-6-----------6-|-(6)-6------------|-----------------|------------------|
|-----------------|------------------|-----------------|------------------|
|-----------------|------------------|-----------------|------------------|
|-----------------|------------------|-----------------|------------------|
|
| Q   q   E E E E   +Q    q   E E Q    Q   q   E E E E   +Q    q  E E Q
|-----------------|------------------|-----2-----2---2-|-(2)---2----2-----|
|-----2-----2---2-|-(2)---2-----2----|-----5-----5---5-|-(5)---5----5-----|
|-----4-----4---4-|-(4)---4-----4----|-----3-----3---3-|-(3)---3----3-----|
|-----3-----3---3-|-(3)---3-----3----|-----2-----2---2-|-(2)---2----2-----|
|-----4-----4---4-|-(4)---4-----4----|-----4-----4---4-|-(4)---4----4-----|
|-----------------|------------------|-----2-----2---2-|-(2)---2----2-----|


                                        2nd Verse
      B7                                    E7
  E E  E  E E  E Q    E E E E E E E E    Q  E E E E E E   +E  E E E E E Q
|-------------------|-----------------||----------------|-------------------|
|-------------------|-----------------||----------------|-------------------|
|-----11----9-11----|-------------7---||-9--9---7-9-----|-------9---7-9-----|
|-9-9----11---------|-9-9---9---9-----||------9---------|---------9---------|
|-------------------|-----------------||--------------7-|-(7)-7-------------|
|-------------------|-----------------||----------------|-------------------|
|
| Q    q    E  E Q    Q   q   Q   Q      Q  q   E E E E    Q    q   E E Q
|------2-------2----|-----2-------2---||----0-----0---0-|--0----0-----0-----|
|------0-------0----|-----0-------0---||----0-----0---0-|--0----0-----0-----|
|------2-------2----|-----2-------2---||----1-----1---1-|--1----1-----1-----|
|------1-------1----|-----1-------1---||----0-----0---0-|--0----0-----0-----|
|------2-------2----|-----2-------2---||----2-----2---2-|--2----2-----2-----|
|-------------------|-----------------||----0-----0---0-|--0----0-----0-----|


      C#7                                F#7            A    Am
  E E E E E E E E   +Q   E E E E Q    W              H     Q   E E
|-----4-----4-----|------4-----4----|--------------|----------------|
|-------4-7-------|--------4-7------|--------------|----------------|
|-6-6-----------6-|-(6)-------------|--------------|-------------9--|
|-----------------|-----------------|--------------|----------------|
|-----------------|-----------------|--------------|----------------|
|-----------------|-----------------|--------------|----------------|
|
| Q   q   E E E E    Q   q   E E Q    Q  Q  E E Q    Q  q  E E Q
|-----------------|-----------------|----2----2----|----0----0------|
|-----2-----2---2-|--2---2-----2----|----5----5----|----2----1------|
|-----4-----4---4-|--4---4-----4----|----3----3----|----2----2------|
|-----3-----3---3-|--3---3-----3----|----2----2----|----2----2------|
|-----4-----4---4-|--4---4-----4----|----4----4----|----0----0------|
|-----------------|-----------------|----2----2----|----------------|


                                     $
       E7
  +Q   Q  E Q.        H      Q   E E
|------------------|-----------------||
|------------------|-----------------||
|-(9)--9--7h9------|-----------------||
|------------------|---------------7-||
|------------------|-----------------||
|------------------|-----------------||
|
|  Q   q  E E  E E   +Q   q  E E Q
|------0----0----0-|-(0)--0----0-----||
|------0----0----0-|-(0)--0----0-----||
|------1----1----1-|-(1)--1----1-----||
|------0----0----0-|-(0)--0----0-----||
|------2----2----2-|-(2)--2----2-----||
|------0----0----0-|-(0)--0----0-----||


 Bridge
        A7
  +E  E E E E E E E    E  E E E E E  E  E
|-------------------|----------------------|
|-----------5-5-----|-----------5-5--------|
|-------5-6-----5-6-|-------5-6------5--6--|
|-(7)-7-------------|--7--7----------------|
|-------------------|----------------------|
|-------------------|----------------------|
|
|  Q    q   E E E E   +Q    q   E E +Q
|-------5-----5---5-|-(5)---5-----5-(5)----|
|-------8-----8---8-|-(8)---8-----8-(8)----|
|-------6-----6---6-|-(6)---6-----6-(6)----|
|-------5-----5---5-|-(5)---5-----5-(5)----|
|-------7-----7---7-|-(7)---7-----7-(7)----|
|-------5-----5---5-|-(5)---5-----5-(5)----|

      
      C#m    
  E E E E E E E E    E  E E E E E  E  E
|---------4-4-----|-----------4---------|
|-----4-5-----4-5-|-------4-5---5--4--5-|
|-6-6-------------|--6--6---------------|
|-----------------|---------------------|
|-----------------|---------------------|
|-----------------|---------------------|
|
| Q   q   E E E E   +Q    q   E E +Q
|-----4-----4---4-|-(4)---4-----4-(4)---|
|-----5-----5---5-|-(5)---5-----5-(5)---|
|-----6-----6---6-|-(6)---6-----6-(6)---|
|-----6-----6---6-|-(6)---6-----6-(6)---|
|-----4-----4---4-|-(4)---4-----4-(4)---|
|-----------------|---------------------|
 

     F#7 
  E E E E E E E E    E  E E E E E  E  E
|-----------------|----------------------|
|---------2-2-----|-----------2-2--------|
|-----2-3-----2-3-|-------2-3------2--3--|
|-4-4-------------|--4--4----------------|
|-----------------|----------------------|
|-----------------|----------------------|
|
| Q   q   E E E E   +Q    q   E E +Q
|-----2-----2---2-|-(2)---2-----2-(2)----|
|-----5-----5---5-|-(5)---5-----5-(5)----|
|-----3-----3---3-|-(3)---3-----3-(3)----|
|-----2-----2---2-|-(2)---2-----2-(2)----|
|-----4-----4---4-|-(4)---4-----4-(4)----|
|-----2-----2---2-|-(2)---2-----2-(2)----|


                                        3rd & 4th Verses
        C7                B7                E7
   E  E E E E E E E   E E E E E E E E    q  q  E E E E   +E  E E E E E Q
|-------------------|-----------------||---------------|-------------------|
|-----------8-8-----|---------7-7-----||---------------|-------------------|
|-------8-9-----8-9-|-----7-------8-9-||----9--7-9-----|-------9---7-9-----|
|-10-10-------------|-9-9---9---------||---------------|---------9---------|
|-------------------|-----------------||-7-----------7-|-(7)-7-------------|
|-------------------|-----------------||---------------|-------------------|
|
|  Q    q   E E Q     Q   q   E E Q      Q  q  E E E E   +Q    q   E E Q
|-------------------|-----2-----2-----||----0----0---0-|-(0)---0-----0-----|
|-------1-----1-----|-----0-----0-----||----0----0---0-|-(0)---0-----0-----|
|-------3-----3-----|-----2-----2-----||----1----1---1-|-(1)---1-----1-----|
|-------2-----2-----|-----1-----1-----||----0----0---0-|-(0)---0-----0-----|
|-------3-----3-----|-----2-----2-----||----2----2---2-|-(2)---2-----2-----|
|-------------------|-----------------||----0----0---0-|-(0)---0-----0-----|


                                                                  To Coda
      C#7                                  F#7       A               Am
  E E E E E E E E   +E  E E E E E Q    E E E E E E Q      E  E E E E E Q
|-----4-----4-----|-------4-----4----|-----6---5-6-----|-------5-----------|
|-------4-7-------|---------4-7------|-7-7---7---------|---------5---------|
|-6-6-----------6-|-(6)-6------------|-----------------|-----------5-------|
|-----------------|------------------|-----------------|--7--7-------7-----|
|-----------------|------------------|-----------------|-------------------|
|-----------------|------------------|-----------------|-------------------|
|
| Q   q   E E E E   +Q    q   E E Q    Q   q   E E E E   +Q    q   E E Q
|-----------------|------------------|-----2-----2---0-|-(0)---0-----0-----|
|-----2-----2---2-|-(2)---2-----2----|-----5-----5---2-|-(2)---2-----1-----|
|-----4-----4---4-|-(4)---4-----4----|-----3-----3---2-|-(2)---2-----2-----|
|-----3-----3---3-|-(3)---3-----3----|-----2-----2---2-|-(2)---2-----2-----|
|-----4-----4---4-|-(4)---4-----4----|-----4-----4---0-|-(0)---0-----0-----|
|-----------------|------------------|-----2-----2-----|-------------------|


                                              Guitar Solo
     E7                                            E7
  W                E  E E  E  Q       S S e    Q     Q     E.    S E  E
|---------------|---------------------------||---------------------------------|
|---------------|-------8-10-10b12---10-8---||-9-----------9----10---10b12=====|
|---------------|-----9-------------------9-||-------9-------------------------|
|---------------|---------------------------||---------------------------------|
|---------------|---------------------------||---------------------------------|
|---------------|---------------------------||---------------------------------|
|
| Q  q  E E E E   +Q    q     E    E  Q        E S S E S S E  S  S E  S     S
|----0----0---0-|-(0)---0----------0--------||-----0-----0-------0----------0--|
|----0----0---0-|-(0)---0----------0--------||-----0-----0-------0----------0--|
|----1----1---1-|-(1)---1----------1--------||-----1-----1-------1----------1--|
|----0----0---0-|-(0)---0----------0--------||-----0-----0-------0----------0--|
|----2----2---2-|-(2)---2----------2--------||-----2-----2-------2----------2--|
|----0----0---0-|-(0)---0----------0--------||-----0-----0-------0----------0--|


                   |-----3------|
   +Q       Q      E      +E    E   E.   S
|-----------7------------------------------|
|-(10)r-----------10pb12r(10)p==8----------|
|-----------------------------------9----9s|
|------------------------------------------|
|------------------------------------------|
|------------------------------------------|
|
|   E   S S E S S  E          S   S E  S S
|---------0-----0-----------------0------0-|
|---------0-----0-----------------0------0-|
|---------1-----1-----------------1------1-|
|---------0-----0-----------------0------0-|
|---------2-----2-----------------2------2-|
|---------0-----0-----------------0------0-|


       C#7
                                           |--3--|   |--3---|
   q     q     a  E S E   E        E.   S  E E   E   E  E   E   Q
|-------------------------------|----------------------------------------|
|--------9----------9-----------|-------9-------------------9------------|
|-10-----------9s10-------8s====|=10------10s8p==6---8s10----------------|
|-------------------------------|----------------------------------------|
|-------------------------------|----------------------------------------|
|-------------------------------|----------------------------------------|
|
|  E S S E S S    E S S E   S S    E  S S  E   S   S E    S   S E S S
|-------------------------------|----------------------------------------|
|------2-----2--------2-------2-|-------2----------2----------2-----2----|
|------4-----4--------4-------4-|-------4----------4----------4-----4----|
|------3-----3--------3-------3-|-------3----------3----------3-----3----|
|------4-----4--------4-------4-|-------4----------4----------4-----4----|
|-------------------------------|----------------------------------------|


      F#7                            A              Am
  E E   Q     a E.  S E.   S   +Q      a Q     Q.       E
|--------------------------2-|-(2)--------------------------|
|---5---7--------------------|--------------------------5---|
|-------------6s4p==2--------|---------6s4-----2------------|
|---------------------4------|------------------------------|
|----------------------------|------------------------------|
|----------------------------|------------------------------|
|
| E S S E S S   E S S E  S S    E  S S   E S S E  S S E S S
|-----2-----2-------2------2-|-------0-------0------0-----0-|
|-----5-----5-------5------5-|-------2-------2------1-----1-|
|-----3-----3-------3------3-|-------2-------2------2-----2-|
|-----2-----2-------2------2-|-------2-------2------2-----2-|
|-----4-----4-------4------4-|-------0-------0------0-----0-|
|-----2-----2-------2------2-|------------------------------|


        E7
                |--3--|
  +Q      Q     E E   E   +E.   S
|---------------------------------|
|-(5)-----------------------------|
|---------4-----3s2---0---(0)-----|
|-------------------------------1-|
|---------------------------------|
|---------------------------------|
|
|  E  S S E S S E   S   S  E  S S
|-------0-----0---------0-------0-|
|-------0-----0---------0-------0-|
|-------1-----1---------1-------1-|
|-------0-----0---------0-------0-|
|-------2-----2---------2-------2-|
|-------0-----0---------0-------0-|


              D.S. al Coda &
                                 E7         A
  E E   Q     H               q  q  S S E Q     +Q   Q  H
|--------------------------||-----------------|----------------||
|--------------------------||-----------------|----------------||
|--------------------------||----9--9p7---7---|-(7)------------||
|-2------------------------||-----------9-----|----------------||
|--------------------------||-7---------------|----------------||
|--------------------------||-----------------|----------------||
|
| E S S E S S E S S E S S     Q  q  E   E E E   +Q   q  E E Q
|---0-----0-----0-----0----||----0------0---0-|-(0)--0----0----||
|---0-----0-----0-----0----||----0------0---2-|-(2)--2----2----||
|---1-----1-----1-----1----||----1------1---2-|-(2)--2----2----||
|---0-----0-----0-----0----||----0------0---2-|-(2)--2----2----||
|---2-----2-----2-----2----||----2------2---0-|-(0)--0----0----||
|---0-----0-----0-----0----||----0------0-----|----------------||


   Outro
       E7         A                      E7         A
    q  q  S S E E E   +W              q  q  S S E E E   +W             3x
||------------------|---------------|-----------------|----------------||
||o-----------------|---------------|-----------------|---------------o||
||-----9--9p7-------|---------------|----9--9p7-------|----------------||
||------------9-7-7-|-(7)-----------|-----------9-7-7-|-(7)------------||
||o-7---------------|---------------|-7---------------|---------------o||
||------------------|---------------|-----------------|----------------||
|
|   Q  q  E   E E E   +Q   q  q  q    Q  q  E   E E E   +Q   q  q  q   3x
||-----0------0---0-|-(0)--0--0--0--|----0------0---0-|-(0)--0--0--0---||
||o----0------0---2-|-(2)--2--2--2--|----0------0---2-|-(2)--2--2--2--o||
||-----1------1---2-|-(2)--2--2--2--|----1------1---2-|-(2)--2--2--2---||
||-----0------0---2-|-(2)--2--2--2--|----0------0---2-|-(2)--2--2--2---||
||o----2------2---0-|-(0)--0--0--0--|----2------2---0-|-(0)--0--0--0--o||
||-----0------0-----|---------------|----0------0-----|----------------||


Duration Legend
---------------
W - whole; H - half; Q - quarter; E - 8th; S - 16th; T - 32nd; X - 64th; a - acciaccatura
+ - note tied to previous; . - note dotted; .. - note double dotted
Uncapitalized letters represent notes that are staccato (1/2 duration)
Irregular groupings are notated above the duration line
Duration letters will always appear directly above the note/fret number it represents the
duration for.  Duration letters with no fret number below them represent rests.  Multi-
bar rests are notated in the form Wxn, where n is the number of bars to rest for.  Low
melody durations appear below the staff

Tablature Legend
----------------
 h   - hammer-on
 p   - pull-off
 b   - bend
 pb  - pre-bend
 r   - bend release (if no number after the r, then release immediately)
 /\  - slide into or out of (from/to "nowhere")
 s   - legato slide
 S   - shift slide
  - natural harmonic
[n]  - artificial harmonic
n(n) - tapped harmonic
 ~   - vibrato
 tr  - trill
 T   - tap
 TP  - trem. picking
 PM  - palm muting
\n/  - tremolo bar dip; n = amount to dip
 \n  - tremolo bar down
 n/  - tremolo bar up
/n\  - tremolo bar inverted dip
 =   - hold bend; also acts as connecting device for hammers/pulls
 <>  - volume swell (louder/softer)
 x   - on rhythm slash represents muted slash
 o   - on rhythm slash represents single note slash

Misc Legend
-----------
 |  - bar
||  - double bar
||o - repeat start
o|| - repeat end
*|  - double bar (ending)
 :  - bar (freetime)
 $  - Segno
 &  - Coda
Tempo markers -  = BPM(8/16=s8/s16), where s8 = swing 8ths, s16 = swing 16ths




I call your name but you're not there
Was I to blame for being unfair
Oh I can't sleep at night
Since you've been gone
I never weep at night
I can't go on

Don't you know I can't take it
I don't know who can
I'm not goin' to mayayake it
I'm not that kind of man

Oh I can't sleep at night
But just the same
I never weep at night
I call your name
Aww

Don't you know I can't take it
I don't know who can
I'm not goin' to mayayake it
I'm not that kind of man

Oh I can't sleep at night
But just the same
I never weep at night
I call your name
I call your name
I call your name
I call your name

            
            
Suggest correction
Creating personal tab
Creating personal tab
You can edit any tab online and save it as your Personal.

You can edit, replace or remove any tab part or add personal notes – all changes will be seen only by you.

Personal tabs can be accessed anytime from any device, even offline.
Learn more »
Give kudos to tab author, rate the tab!
1 2 3 4 5
comments
print report bad tab
guest
You may want to rate the tab now too:
select rating
Wanna post a correction for this tab? Suggest correction