Oops, an error
Loading. Please wait.
We have an official If I Fell tab made by UG professional guitarists. Check out the tab »
×
15,419 views 18 this week
no commentswrite comment
1 2 3 4 5
x 6
add to favorites
×
Save as Personal and add changes to this tab that will be seen only by you. Learn more ›
×
You can save this tab as Personal to edit and correct it or add notes. All changes will be seen only by you. Learn more »
launch autoscroll
font size
0
reset
guitar tuner
edit
Autoscroll
slow
fast
+/-
esc
set tempo
stop
Author
If I Fell
The Beatles
Written by John Lennon and Paul McCartney; released on "A Hard Day's Night" 
album

A nice song from the film "A Hard Day's Night"

Intro:
G|------- ------- ------- -------|------- ------- ------- -------|
D|-------------------------------|-------------------------------|
A|-------------------------------|-------------------------------|
E|-------------------------------|-------------------------------|
                                                          If  I


G|------- ------- ------- -------|------- ------- ------- -------|
D|-------------------------------|-------------------------------|
A|-------------------------------|-------------------------------|
E|-------------------------------|-------------------------------|
  fell in love with       would   promise to  be  true,       and
                  you,        you

G|------- ------- ------- -------|------- ------- ------- -------|
D|-------------------------------|-------------------------------|
A|-------------------------------|-------------------------------|
E|-------------------------------|-------------------------------|
  help    me                      un- der  -  stand?      Cause
                                                              I've

G|------- ------- ------- -------|------- ------- ------- -------|
D|-------------------------------|-------------------------------|
A|-------------------------------|-------------------------------|
E|-------------------------------|-------------------------------|
  been in love before,    and I   found   love was more       than
                                      that

G|------- ------- ------- -------|------- ------- ------- -------|
D|-------------------------------|-------------------------------|
A|-------------------------------|-------------------------------|
E|-------------------------------|-------------------------------|
  just            holding     hands                       If  I

Verse:
G|------- ------- ------- -------|------- ------- ------- -------|
D|-------------------------------|-------------------------------|
A|5---------------7--------------|9---------------9-------8------|
E|-------------------------------|-------------------------------|
  give            my              heart                   to


G|------- ------- ------- -------|------- ------- ------- -------|
D|-------------------------------|7-----------7---7-----------7--|
A|7-----------7---7-----------7--|-------------------------------|
E|-------------------------------|-------------------------------|
  you,                        I   must    be      sure    From the


G|------- ------- ------- -------|------- ------- ------- -------|
D|-------------------------------|-------------------------------|
A|5-----------5---7--------------|9-----------9---9-------8------|
E|-------------------------------|-------------------------------|
  ve      -       ry              start                   that


G|------- ------- ------- -------|------- ------- ------- -------|
D|-------------------------------|7-----------7---7-----------7--|
A|7-----------7---7-----------7--|-------------------------------|
E|-------------------------------|-------------------------------|
  you                       would love    me      more    than


G|------- ------- ------- -------|------- ------- ------- -------|
D|-------------------------------|5-----------5---7-----------7--|
A|5-----------5---5--------------|-------------------------------|
E|-------------------------------|-------------------------------|
  her                                                     If  I

Verse:
G|------- ------- ------- -------|------- ------- ------- -------|
D|-------------------------------|-------------------------------|
A|5-----------5---7-----------7--|9-----------9---9-------8------|
E|-------------------------------|-------------------------------|
  trust           in              you,                    oh,


G|------- ------- ------- -------|------- ------- ------- -------|
D|-------------------------------|7-----------7---7-----------7--|
A|7-----------7---7-----------7--|-------------------------------|
E|-------------------------------|-------------------------------|
  please,                   don't run     and     hide,   If  I


G|------- ------- ------- -------|------- ------- ------- -------|
D|-------------------------------|-------------------------------|
A|5-----------5---7-----------7--|9-----------9---9-------8------|
E|-------------------------------|-------------------------------|
  love            you             too,                    oh,


G|------- ------- ------- -------|------- ------- ------- -------|
D|-------------------------------|7---------------7-----------7--|
A|7-----------7---7-----------7--|-------------------------------|
E|-------------------------------|-------------------------------|
  please,                   don't hurt    my      pride   like

Bridge:
G|------- ------- ------- -------|------- ------- ------- -------|
D|-------------------------------|-------------------------------|
A|5-----------5---5--------------|5-----------5---5--------------|
E|-------------------------------|-------------------------------|
  her,                    cause I couldn't        stand   the pain,


G|------- ------- ------- -------|------- ------- ------- -------|
D|5-----------5---5--------------|5-----------5---5--------------|
A|-------------------------------|-------------------------------|
E|-------------------------------|-------------------------------|
                          And I                           would be


G|------- ------- ------- -------|------- ------- ------- -------|
D|5-----------5---5--------------|-------------------------------|
A|-------------------------------|5-----------5---5--------------|
E|-------------------------------|-------------------------------|
  sad     if      our     new     love                    was in


G|------- ------- ------- -------|
D|7-----------7---7--------------|
A|-------------------------------|
E|-------------------------------|
  vain                    So  I

Verse:
G|------- ------- ------- -------|------- ------- ------- -------|
D|-------------------------------|-------------------------------|
A|5-----------5---7-----------7--|9-----------9---9-------8------|
E|-------------------------------|-------------------------------|
  hope            you             see                     that


G|------- ------- ------- -------|------- ------- ------- -------|
D|-------------------------------|7-----------7---7-----------7--|
A|7-----------7---7-----------7--|-------------------------------|
E|-------------------------------|-------------------------------|
  I                         would love    to      love    you,


G|------- ------- ------- -------|------- ------- ------- -------|
D|-------------------------------|-------------------------------|
A|5-----------5---7-----------7--|9-----------9---9-------8------|
E|-------------------------------|-------------------------------|
  And             that            she                     will


G|------- ------- ------- -------|------- ------- ------- -------|
D|-------------------------------|7-----------7---7--------------|
A|7-----------7---7-----------7--|-------------------------------|
E|-------------------------------|-------------------------------|
  cry                        when she     learns  we  are     two,

Bridge:
G|------- ------- ------- -------|------- ------- ------- -------|
D|-------------------------------|-------------------------------|
A|5-----------5---5--------------|5-----------5---5--------------|
E|-------------------------------|-------------------------------|
                          cause I couldn't        stand   the pain,


G|------- ------- ------- -------|------- ------- ------- -------|
D|5-----------5---5---5----------|5-----------5---5--------------|
A|-------------------------------|-------------------------------|
E|-------------------------------|-------------------------------|
                          And I                           would be


G|------- ------- ------- -------|------- ------- ------- -------|
D|5-----------5---5--------------|-------------------------------|
A|-------------------------------|5-----------5---5--------------|
E|-------------------------------|-------------------------------|
  sad     if      our     new     love                    was in


G|------- ------- ------- -------|
D|7-----------7---7--------------|
A|-------------------------------|
E|-------------------------------|
  vain                    So  I

Verse:
G|------- ------- ------- -------|------- ------- ------- -------|
D|-------------------------------|-------------------------------|
A|5-----------5---7-----------7--|9-----------9---9-------8------|
E|-------------------------------|-------------------------------|
  hope            you             see                     that


G|------- ------- ------- -------|------- ------- ------- -------|
D|-------------------------------|7-----------7---7-----------7--|
A|7-----------7---7-----------7--|-------------------------------|
E|-------------------------------|-------------------------------|
  I                         would love    to      love    you,


G|------- ------- ------- -------|------- ------- ------- -------|
D|-------------------------------|-------------------------------|
A|5-----------5---7-----------7--|9-----------9---9-------8------|
E|-------------------------------|-------------------------------|
  And             that            she                     will


G|------- ------- ------- -------|------- ------- ------- -------|
D|-------------------------------|7-----------7---7--------------|
A|7-----------7---7-----------7--|-------------------------------|
E|-------------------------------|-------------------------------|
  cry                        when she     learns  we  are     two,

Outro:
G|------- ------- ------- -------|------- ------- ------- -------|
D|-------------------------------|5-----------5---5--------------|
A|5-----------5---5--------------|-------------------------------|
E|-------------------------------|-------------------------------|
                          If  I   fell    in      love    with you


G|------- ------- ------- -------|------- ------- ------- -------|
D|-------------------------------|5-----------5---5-----------5--|
A|5-----------5---5-----------5--|-------------------------------|
E|-------------------------------|-------------------------------|



G|------- ------- ------- -------|------- ------- ------- -------|
D|-------------------------------|-------------------------------|
A|5------------------------------|-------------------------------|
E|-------------------------------|-------------------------------|

Please e-mail me for any corrections.

            
            
Suggest correction
Creating personal tab
Creating personal tab
You can edit any tab online and save it as your Personal.

You can edit, replace or remove any tab part or add personal notes – all changes will be seen only by you.

Personal tabs can be accessed anytime from any device, even offline.
Learn more »
comments
print report bad tab
guest
You may want to rate the tab now too:
select rating
Wanna post a correction for this tab? Suggest correction