Oops, an error
Loading. Please wait.
We have an official If I Needed Someone tab made by UG professional guitarists. Check out the tab »
×
10,308 views 12 this week
no commentswrite comment
1 2 3 4 5
x 8
add to favorites
×
Save as Personal and add changes to this tab that will be seen only by you. Learn more ›
×
You can save this tab as Personal to edit and correct it or add notes. All changes will be seen only by you. Learn more »
launch autoscroll
font size
0
reset
guitar tuner
backing track
0:00
0:00
edit
Autoscroll
slow
fast
+/-
esc
set tempo
stop
Author
If I Needed Someone
The Beatles
Written by George Harrison; released on "Rubber Soul" album.

This one is wonderful, has always been one of my favourites.

Intro:
G|------- ------- ------- -------|------- ------- ------- -------|
D|-------------------------------|-------------------------------|
A|-------------------------------|-------------------------------|
E|-------------------------------|-------------------------------|



G|------- ------- ------- 9------|------- ------- ------- 9------|
D|7-------5---7-/-9---9----------|7-------5---7-/-9---9----------|
A|-------------------------------|-------------------------------|
E|-------------------------------|-------------------------------|


Verse:
G|------- ------- ------- 9------|------- ------- ------- 9------|
D|7-------5---7-/-9---9----------|7-------5---7-/-9---9----------|
A|-------------------------------|-------------------------------|
E|-------------------------------|-------------------------------|
  If  I       nee  -  ded     some  - one     to      love,


G|------- ------- ------- 9------|------- ------- ------- 9------|
D|7-------5---7-/-9---9----------|7-------5---7-/-9---9----------|
A|-------------------------------|-------------------------------|
E|-------------------------------|-------------------------------|
  you're      one     that    I'd     be      thin -  king    of,
      the

G|------- ------- ------- 9------|------- ------- ------- 9------|
D|7-------5---7-/-9---9----------|7-------5---7-/-9---9----------|
A|-------------------------------|-------------------------------|
E|-------------------------------|-------------------------------|
                                  If  I       nee  -  ded     some-


G|------- ------- ------- 9------|------- ------- ------- 9------|
D|7-------5---7-/-9---9----------|7-------5---7-/-9---9----------|
A|-------------------------------|-------------------------------|
E|-------------------------------|-------------------------------|
      one

Verse:
G|------- ------- ------- 9------|------- ------- ------- 9------|
D|7-------5---7-/-9---9----------|7-------5---7-/-9---9----------|
A|-------------------------------|-------------------------------|
E|-------------------------------|-------------------------------|
  If  I       had     some    more    time    to      spend,


G|------- ------- ------- 9------|------- ------- ------- 9------|
D|7-------5---7-/-9---9----------|7-------5---7-/-9---9----------|
A|-------------------------------|-------------------------------|
E|-------------------------------|-------------------------------|
  then I      guess   I'd     be      with    you,    my      friend,


G|------- ------- ------- 9------|------- ------- ------- 9------|
D|7-------5---7-/-9---9----------|7-------5---7-/-9---9----------|
A|-------------------------------|-------------------------------|
E|-------------------------------|-------------------------------|
                                  If  I       nee  -  ded     some-


G|------- ------- ------- 9------|------- ------- ------- 9------|
D|7-------5---7-/-9---9----------|7-------5---7-/-9---9----------|
A|-------------------------------|-------------------------------|
E|-------------------------------|-------------------------------|
      one

Bridge:
G|------- ------- ------- -------|------- ------- ------- -------|
D|-------------------------------|-------------------------------|
A|7-------7-------7---7-------7--|9-------9-------9---9----------|
E|-------------------------------|----------------------------9--|
  Had you     come    some    o   -   ther    day,    then,


G|------- ------- ------- -------|------- ------- ------- -------|
D|-------------------------------|-------------------------------|
A|9-------9-------9---9----------|--------9-------9---9----------|
E|------------------------10--9--|7---------------------------7--|
  it  might   not     have    been    like    this,


G|------- ------- ------- -------|------- ------- ------- -------|
D|-------------------------------|-------------------------------|
A|7-------7-------7---7----------|9-------9-------9---9----------|
E|----------------------------7--|----------------------------9--|
  But you     see,    now     I'm     too     much    in      love


G|------- ------- ------- -------|------- ------- ------- -------|
D|-------------------------------|-------------------------------|
A|-------------------------------|7-------7-------7---7-------7--|
E|7-------7-------7---7-------7--|-------------------------------|


Verse:
G|------- ------- ------- 9------|------- ------- ------- 9------|
D|7-------5---7-/-9---9----------|7-------5---7-/-9---9----------|
A|-------------------------------|-------------------------------|
E|-------------------------------|-------------------------------|
  Carve       num  -  ber     on      my      wall,   and     may-
      your

G|------- ------- ------- 9------|------- ------- ------- 9------|
D|7-------5---7-/-9---9----------|7-------5---7-/-9---9----------|
A|-------------------------------|-------------------------------|
E|-------------------------------|-------------------------------|
      be      you     will    get     a       call    from    me,


G|------- ------- ------- 9------|------- ------- ------- 9------|
D|7-------5---7-/-9---9----------|7-------5---7-/-9---9----------|
A|-------------------------------|-------------------------------|
E|-------------------------------|-------------------------------|
                                  If  I       nee  -  ded     some-


G|------- ------- ------- 9------|------- ------- ------- 9------|
D|7-------5---7-/-9---9----------|7-------5---7-/-9---9----------|
A|-------------------------------|-------------------------------|
E|-------------------------------|-------------------------------|
      one

Verse (solo):
G|------- ------- ------- 9------|------- ------- ------- 9------|
D|7-------5---7-/-9---9----------|7-------5---7-/-9---9----------|
A|-------------------------------|-------------------------------|
E|-------------------------------|-------------------------------|
  Aaaaaaaaaaaaaaaaaaaaaaaaaaaaaaaaaaaaaaaaaaaaaaaaaaaaaaa


G|------- ------- ------- 9------|------- ------- ------- 9------|
D|7-------5---7-/-9---9----------|7-------5---7-/-9---9----------|
A|-------------------------------|-------------------------------|
E|-------------------------------|-------------------------------|
  Aaaaaaaaaaaaaaaaaaaaaaaaaaaaaaaaaaaaaaaaaaaaaaaaaaaaaaa


G|------- ------- ------- 9------|------- ------- ------- 9------|
D|7-------5---7-/-9---9----------|7-------5---7-/-9---9----------|
A|-------------------------------|-------------------------------|
E|-------------------------------|-------------------------------|
  Aaaaaaaaaaaaaaaaaaaaaaaaaaaaaaaaaaaaaaaaaaaaaaaaaaaaaaa


G|------- ------- ------- 9------|------- ------- ------- 9------|
D|7-------5---7-/-9---9----------|7-------5---7-/-9---9----------|
A|-------------------------------|-------------------------------|
E|-------------------------------|-------------------------------|
  Aaaaaaaaaaaaaaaaaaaaaaaaaaaaaaaaaaaaaaaaaaaaaaaaaaaaaaa

Verse:
G|------- ------- ------- 9------|------- ------- ------- 9------|
D|7-------5---7-/-9---9----------|7-------5---7-/-9---9----------|
A|-------------------------------|-------------------------------|
E|-------------------------------|-------------------------------|
  If  I       had     some    more    time    to      spend,


G|------- ------- ------- 9------|------- ------- ------- 9------|
D|7-------5---7-/-9---9----------|7-------5---7-/-9---9----------|
A|-------------------------------|-------------------------------|
E|-------------------------------|-------------------------------|
  then I      guess   I'd     be      with    you,    my      friend,


G|------- ------- ------- 9------|------- ------- ------- 9------|
D|7-------5---7-/-9---9----------|7-------5---7-/-9---9----------|
A|-------------------------------|-------------------------------|
E|-------------------------------|-------------------------------|
                                  If  I       nee  -  ded     some-


G|------- ------- ------- 9------|------- ------- ------- 9------|
D|7-------5---7-/-9---9----------|7-------5---7-/-9---9----------|
A|-------------------------------|-------------------------------|
E|-------------------------------|-------------------------------|
      one

Bridge:
G|------- ------- ------- -------|------- ------- ------- -------|
D|-------------------------------|-------------------------------|
A|7-------7-------7---7-------7--|9-------9-------9---9-------9--|
E|-------------------------------|-------------------------------|
  Had you     come    some    o   -   ther    day,    then,


G|------- ------- ------- -------|------- ------- ------- -------|
D|-------------------------------|-------------------------------|
A|9-------9-----------9-------9--|----------------9---9----------|
E|----------------10------9------|7-------7-------------------7--|
  it  might   not     have    been    like    this,


G|------- ------- ------- -------|------- ------- ------- -------|
D|-------------------------------|-------------------------------|
A|7-------7-------------------7--|9-------9-------------------9--|
E|----------------7---7----------|----------------9---9----------|
  But you     see,    now     I'm     too     much    in      love


G|------- ------- ------- -------|------- ------- ------- -------|
D|-------------------------------|-------------------------------|
A|-------------------------------|7-------7-------7---7-------7--|
E|7-------7-------7---7-------7--|-------------------------------|


Verse:
G|------- ------- ------- 9------|------- ------- ------- 9------|
D|7-------5---7-/-9---9----------|7-------5---7-/-9---9----------|
A|-------------------------------|-------------------------------|
E|-------------------------------|-------------------------------|
  Carve       num  -  ber     on      my      wall,   and     may-
      your

G|------- ------- ------- 9------|------- ------- ------- 9------|
D|7-------5---7-/-9---9----------|7-------5---7-/-9---9----------|
A|-------------------------------|-------------------------------|
E|-------------------------------|-------------------------------|
      be      you     will    get     a       call    from    me,


G|------- ------- ------- 9------|------- ------- ------- 9------|
D|7-------5---7-/-9---9----------|7-------5---7-/-9---9----------|
A|-------------------------------|-------------------------------|
E|-------------------------------|-------------------------------|
                                  If  I       nee  -  ded     some-


G|------- ------- ------- 9------|------- ------- ------- 9------|
D|7-------5---7-/-9---9----------|7-------5---7-/-9---9----------|
A|-------------------------------|-------------------------------|
E|-------------------------------|-------------------------------|
      one

Outro:
G|------- ------- ------- 9------|------- ------- ------- 9------|
D|7-------5---7-/-9---9----------|7-------5---7-/-9---9----------|
A|-------------------------------|-------------------------------|
E|-------------------------------|-------------------------------|
  Aaaaaaaaaaaaaaaaaaaaaaaaaaaaaaaaaaaaaaaaaaaaaaaaaaaaaaa


G|------- ------- ------- 9------|------- ------- ------- 9------|
D|7-------5---7-/-9---9----------|7-------5---7-/-9---9----------|
A|-------------------------------|-------------------------------|
E|-------------------------------|-------------------------------|
  Aaaaaaaaaaaaaaaaaaaaaaaaaaaaaaaaaaaaaaaaaaaaaaaaaaaaaaa


G|------- ------- ------- -------|------- ------- ------- -------|
D|7------------------------------|-------------------------------|
A|-------------------------------|-------------------------------|
E|-------------------------------|-------------------------------|

Please e-mail me for any corrections.

            
            
Suggest correction
Creating personal tab
Creating personal tab
You can edit any tab online and save it as your Personal.

You can edit, replace or remove any tab part or add personal notes – all changes will be seen only by you.

Personal tabs can be accessed anytime from any device, even offline.
Learn more »
comments
print report bad tab
guest
You may want to rate the tab now too:
select rating
Wanna post a correction for this tab? Suggest correction