Oops, an error
Loading. Please wait.
We have an official Norwegian Wood tab made by UG professional guitarists. Check out the tab »
×

Norwegian Wood intro tab

version 1
version 1

Intro

Whole song

70,607 views 51 this week
7 commentsread comments
1 2 3 4 5
x 35
add to favorites
×
Save as Personal and add changes to this tab that will be seen only by you. Learn more ›
×
You can save this tab as Personal to edit and correct it or add notes. All changes will be seen only by you. Learn more »
launch autoscroll
font size
0
reset
how to read this tab
guitar tuner
backing track
0:00
0:00
edit
Autoscroll
slow
fast
+/-
esc
set tempo
stop
Author
Unregistered
E|-7-7-9-7-5-4------------5--------------------------------------------|
B|-------------7-10-9-5-3---2-0----------------------------------------|
G|---------------------------------------------------------------------|   2x
D|---------------------------------------------------------------------| through
A|---------------------------------------------------------------------|
E|---------------------------------------------------------------------|

Jordan-(j_john_1989_07@hotmail.com)

            
            
Suggest correction
Creating personal tab
Creating personal tab
You can edit any tab online and save it as your Personal.

You can edit, replace or remove any tab part or add personal notes – all changes will be seen only by you.

Personal tabs can be accessed anytime from any device, even offline.
Learn more »
comments
print report bad tab
7 comments total. Showing first comments.
-1 reply
Tea_Drinker 10 Oct 22, 2005 12:17 PM

Sorry mate way out. Try putting a capo on 2 and forming a D shape. and as you strum play the melody notes. I will try to post a tab sometime.

-1 reply
NGplayer 153 Jan 30, 2006 01:39 AM

Try this one its on E

e--7-7h9-7-------------------------------------
B--9-------10-9---7--10-9----------------------
G--9----------------------9---7--10-9---------- 2x
D-------------------------------------9--------
A----------------------------------------------
E----------------------------------------------

-1 reply
Robman2k9 30 Jan 28, 2007 05:18 PM

e--7--7h9-7----------------------------3----------
b------------10-9---7--10-9----------------------
g---------------------------9-------4------4-2-----

I think thats better

guest
Wanna post a correction for this tab? Suggest correction