Oops, an error
Loading. Please wait.
We have an official Please Please Me tab made by UG professional guitarists. Check out the tab »
×
20,567 views 30 this week
1 commentread comment
1 2 3 4 5
x 16
add to favorites
×
Save as Personal and add changes to this tab that will be seen only by you. Learn more ›
×
You can save this tab as Personal to edit and correct it or add notes. All changes will be seen only by you. Learn more »
launch autoscroll
font size
0
reset
guitar tuner
backing track
0:00
0:00
edit
Autoscroll
slow
fast
+/-
esc
set tempo
stop
Author
Please Please Me
The Beatles
Written by John Lennon and Paul McCartney; released on single "Please 
Please Me / Ask Me Why" and on album "Please Please Me"

"Please Please Me" was their second single, and their first number one hit.

Intro:
G|------- ------- ------- -------|------- ------- ------- -------|
D|-------------------------------|-------------------------------|
A|-------------------------------|-------------------------------|
E|-------------------------------|------------------------7------|



G|------- ------- ------- -------|------- ------- ------- -------|
D|-------------------------------|-------------------------------|
A|7-------7---7---7---7---7---7--|7---7---7---7---7---7----------|
E|-------------------------------|------------------------7------|



G|------- ------- ------- -------|------- ------- ------- -------|
D|-------------------------------|-------------------------------|
A|7---7---7---7---7---7---7---7--|7---7---7---7---7---7----------|
E|-------------------------------|------------------------7------|


Verse:
G|------- ------- ------- -------|------- ------- ------- -------|
D|-------------------------------|-------------------------------|
A|7---7---7---7---7---7---7---7--|7---7---7---7---7---7---7---7--|
E|-------------------------------|-------------------------------|
          Last    night   I       said    these   words   to


G|------- ------- ------- -------|------- ------- ------- -------|
D|7---7---7----------------------|----5---5---7---7---9---9---9--|
A|----------------7---7---7---7--|7------------------------------|
E|-------------------------------|-------------------------------|
  my              girl:


G|------- ------- ------- -------|------- ------- ------- -------|
D|-------------------------------|-------------------------------|
A|7---7---7---7---7---7---7---7--|7---7---7---7---7---7---7---7--|
E|-------------------------------|-------------------------------|
         'I       know    you     ne  -   ver     e   -   ven


G|------- ------- ------- -------|------- ------- 9---9-- -------|
D|7---7---7---7------------------|------------------------9---9--|
A|----------------7---7---7---7--|7-------7---7------------------|
E|-------------------------------|-------------------------------|
  try,            girl'                                       Come


G|------- ------- ------- -------|------- ------- ------- -------|
D|7-----------------------7---6--|4-----------------------4---5--|
A|------------7------------------|------------4------------------|
E|-------------------------------|-------------------------------|
  on,                        come on,                         come
          come on                         come on

G|------- ------- ------- -------|------- ------- ------- -------|
D|6-----------------------6------|7-----------------------7------|
A|------------4---------------4--|------------7------------------|
E|-------------------------------|-------------------------------|
  on,                        come on,                     Please,
          come on                         come on

G|------- ------- ------- -------|------- ------- ------- -------|
D|-------------------------------|7---7---7---7---9---9---9------|
A|7---7---7---7---7---7---7---7--|----------------------------6--|
E|-------------------------------|-------------------------------|
  please          me,     woah,   yeah,       like I      please


G|------- ------- ------- -------|------- ------- ------- -------|
D|------------6---9---9---6------|7---7---6---7---9---9----------|
A|7---7---7-------------------7--|-------------------------------|
E|-------------------------------|------------------------7---7--|
  you

Verse:
G|------- ------- ------- -------|------- ------- ------- -------|
D|-------------------------------|-------------------------------|
A|7---7---7---7---7---7---7---7--|7---7---7---7---7---7---7---7--|
E|-------------------------------|-------------------------------|
          You     don't   need    me      to      show    the


G|------- ------- ------- -------|------- ------- ------- -------|
D|7---7---7----------------------|----5---5---7---7---9---9------|
A|----------------7---7---7---7--|7------------------------------|
E|-------------------------------|----------------------------7--|
  way,            love,


G|------- ------- ------- -------|------- ------- ------- -------|
D|-------------------------------|-------------------------------|
A|7-------7---7---7---7---7---7--|7---7---7---7---7---7---7---7--|
E|-------------------------------|-------------------------------|
          Why     do      I       al  -   ways    have    to


G|------- ------- ------- -------|------- ------- 9---9-- -------|
D|7---7---7---7------------------|------------------------9---9--|
A|----------------7---7---7---7--|7-------7---7------------------|
E|-------------------------------|-------------------------------|
  say,            love?                                       Come


G|------- ------- ------- -------|------- ------- ------- -------|
D|7-----------------------7---6--|4-----------------------4---5--|
A|------------7------------------|------------4------------------|
E|-------------------------------|-------------------------------|
  on,                        come on,                         come
          come on                         come on

G|------- ------- ------- -------|------- ------- ------- -------|
D|6-----------------------6------|7-----------------------7------|
A|------------4---------------4--|------------7------------------|
E|-------------------------------|-------------------------------|
  on,                        come on,                     Please,
          come on                         come on

G|------- ------- ------- -------|------- ------- ------- -------|
D|-------------------------------|7---7---7-------9---9---9---9--|
A|7---7---7---7---7---7---7---7--|-------------------------------|
E|-------------------------------|-------------------------------|
  please          me,     woah,   yeah,       like I      please


G|------- ------- ------- -------|------- ------- ------- -------|
D|------------6---9---9---6---9--|-------------------------------|
A|7---7---7----------------------|7------------------------------|
E|-------------------------------|-------------------------------|
  you

Bridge:
G|------- ------- ------- -------|------- ------- ------- -------|
D|7------------------------------|9-------7-------6--------------|
A|--------9-------7--------------|------------------------9------|
E|------------------------9------|----------------------------7--|
  I don't want to sound complaining,  you know    always  rain in
                                  but         there's
  Aaaaaaaaaaaaaaaaaaaaaaaaaaaaaaaaaaaaaaaaaaaaaaaaaaaaaaaaaaaaaaa
G|------- ------- ------- -------|------- ------- ------- -------|
D|------------6---9-------6---9--|------------6---9-------6------|
A|7-------7----------------------|7-------7-------------------7--|
E|-------------------------------|-------------------------------|
  my              heart
                                          in      my      heart

G|------- ------- ------- -------|------- ------- ------- -------|
D|7------------------------------|9-------9---7---6--------------|
A|--------9-------7--------------|------------------------9------|
E|------------------------9------|-------------------------------|
  I   do  all the pleasing with   it's so hard to reason      with
                              you,
  Aaaaaaaaaaaaaaaaaaaaaaaaaaaaaaaaaaaaaaaaaaaaaaaaaaaaaaaaaaaa
G|------- ------- ------- -------|------- ------- ------- -------|
D|------------6---9-------6------|7-------7---7---9-------9------|
A|7---------------------------7--|-------------------------------|
E|-------------------------------|----------------------------7--|
  you,                    woah,   yeah,       why do  you make me


G|------- ------- ------- -------|------- ------- ------- -------|
D|------------6---9-------6------|7-------6---7---9--------------|
A|7-------7-------------------7--|-------------------------------|
E|-------------------------------|------------------------7---7--|
  blue?

Verse:
G|------- ------- ------- -------|------- ------- ------- -------|
D|-------------------------------|-------------------------------|
A|7---7---7---7---7---7---7---7--|7---7---7---7---7---7---7---7--|
E|-------------------------------|-------------------------------|
          Last    night   I       said    these   words   to


G|------- ------- ------- -------|------- ------- ------- -------|
D|7---7---7----------------------|----5---5---7---7---9---9------|
A|----------------7---7---7---7--|7------------------------------|
E|-------------------------------|----------------------------7--|
  my              girl:


G|------- ------- ------- -------|------- ------- ------- -------|
D|-------------------------------|-------------------------------|
A|7---7---7---7---7---7---7---7--|7---7---7---7---7---7---7---7--|
E|-------------------------------|-------------------------------|
         'I       know    you     ne  -   ver     e   -   ven


G|------- ------- ------- -------|------- ------- 9---9-- -------|
D|7---7---7---7------------------|------------------------9---9--|
A|----------------7---7---7---7--|7-------7---7------------------|
E|-------------------------------|-------------------------------|
  try,            girl'                                       Come


G|------- ------- ------- -------|------- ------- ------- -------|
D|7-----------------------7---6--|4-----------------------4---5--|
A|------------7------------------|------------4------------------|
E|-------------------------------|-------------------------------|
  on,                        come on,                         come
          come on                         come on

G|------- ------- ------- -------|------- ------- ------- -------|
D|6-----------------------6------|7-----------------------7------|
A|------------4---------------4--|------------7------------------|
E|-------------------------------|-------------------------------|
  on,                        come on,                     Please,
          come on                         come on

G|------- ------- ------- -------|------- ------- ------- -------|
D|-------------------------------|7---7---7---7---9---9----------|
A|7---7---7-------7---7---7---7--|-------------------------------|
E|-------------------------------|------------------------7---7--|
  please          me,     woah,   yeah,       like I      please


G|------- ------- ------- -------|------- ------- ------- -------|
D|-------------------------------|7---7---7---7---9---9----------|
A|7---7---7---7---7---7---7---7--|-------------------------------|
E|-------------------------------|------------------------7---7--|
  you             me,     woah,   yeah,       like I      please

Outro:
G|------- ------- ------- -------|------- ------- ------- -------|
D|-------------------------------|7---7---7---7---9---9----------|
A|7---7---7---7---7---7---7---7--|-------------------------------|
E|-------------------------------|------------------------7---7--|
  you             me,     woah,   yeah,       like I      please


G|------- ------- ------- -------|------- ------- ------- -------|
D|----------------5--------------|-------------------------------|
A|7------------------------------|-------------------------------|
E|-------------------------------|8---------------7--------------|
  you


G|------- ------- ------- -------|------- ------- ------- -------|
D|-------------------------------|-------------------------------|
A|7------------------------------|-------------------------------|
E|-------------------------------|-------------------------------|

Please e-mail me for any corrections, or write a comment.

            
            
Suggest correction
Creating personal tab
Creating personal tab
You can edit any tab online and save it as your Personal.

You can edit, replace or remove any tab part or add personal notes – all changes will be seen only by you.

Personal tabs can be accessed anytime from any device, even offline.
Learn more »
comments
print report bad tab
1 comment total.
0 reply
jwilder 62 Jul 15, 2015 06:54 AM

THIS IS GREAT!

guest
You may want to rate the tab now too:
select rating
Wanna post a correction for this tab? Suggest correction