Oops, an error
Loading. Please wait.
We have an official Please Please Me tab made by UG professional guitarists. Check out the tab »
×
5,495 views 3 this week
1 commentread comment
1 2 3 4 5
x 5
add to favorites
×
Save as Personal and add changes to this tab that will be seen only by you. Learn more ›
×
You can save this tab as Personal to edit and correct it or add notes. All changes will be seen only by you. Learn more »
launch autoscroll
font size
0
reset
how to read this tab
guitar tuner
backing track
0:00
0:00
edit
Autoscroll
slow
fast
+/-
esc
set tempo
stop
Author
-------------------------------------------------------------------------------
			     Please Please Me - The Beatles
-------------------------------------------------------------------------------
Tabbed by: nrrjw
Tuning: Standard

This song is from the album "Please Please Me" 
released on the 22nd of March 1963.

I like this song a lot, I tabbed the notes that the 
harmonica plays in the song. 

 Harmonica
e|-12-11-------------------|
B|-------14-12---14-12-----|
G|---------------------13--|  X2
D|-------------------------|
A|-------------------------|
E|-------------------------|

 Rhythm Guitar 
  E
e|-0-0-0-0-0-0-0-0-0-0-0-0-|
B|-0-0-0-0-0-0-0-0-0-0-0-0-|
G|-1-1-1-1-1-1-1-1-1-1-1-1-|  X2
D|-2-2-2-2-2-2-2-2-2-2-2-2-|
A|-2-2-2-2-2-2-2-2-2-2-2-2-|
E|-0-0-0-0-0-0-0-0-0-0-0-0-|

   E                             A     E     G    A    B
e|-0--0--0--0--0--0--0--0--0--0--0--0--0----------------------|
B|-0--0--0--0--0--0--0--0--0--0--2--2--0----------------------|
G|-1--1--1--1--1--1--1--1--1--1--2--2--1----------------------|
D|-2--2--2--2--2--2--2--2--2--2--2--2--2-----5-5--7-7--9999---|
A|-2--2--2--2--2--2--2--2--2--2--0--0--2-----5-5--7-7--9999---|
E|-0--0--0--0--0--0--0--0--0--0--------0-----3-3--5-5--7777---|
  Last night I said this words to my girl

   E                             A     E
e|-0--0--0--0--0--0--0--0--0--0--0--0--00000------------------|
B|-0--0--0--0--0--0--0--0--0--0--2--2--00000------------------|
G|-1--1--1--1--1--1--1--1--1--1--2--2--11111------------------|
D|-2--2--2--2--2--2--2--2--2--2--2--2--22222------2-2---------|
A|-2--2--2--2--2--2--2--2--2--2--0--0--22222-----------2-2----|
E|-0--0--0--0--0--0--0--0--0--0--------00000--0-0-------------|
  I know you ne - ver ev - en  try  girl

   A            F#m         C#m          A
e|-0--0--0--0---2--2-2--2-2-4--4--4--4-4-5--5--5--5--|
B|-2--2--2--2---2--2-2--2-2-5--5--5--5-5-5--5--5--5--|
G|-2--2--2--2---2--2-2--2-2-6--6--6--6-6-6--6--6--6--|
D|-2--2--2--2---4--4-4--4-4-6--6--6--6-6-7--7--7--7--|
A|-0--0--0--0---4--4-4--4-4-4--4--4--4-4-7--7--7--7--|
E|--------------2--2-2--2-2--------------5--5--5--5--|
   C'mon        C'mon       C'mon        C'mon
        C'mon       C'mon       C'mon        C'mon

    E                   A      B        E
e|--0--0--0--0--0--0--0-0--0-0-22-2--2--0---|
B|--0--0--0--0--0--0--0-2--2-2-44-4--4--0---|
G|--1--1--1--1--1--1--1-2--2-2-44-4--4--1---|
D|--2--2--2--2--2--2--2-2--2-2-44-4--4--2---|
A|--2--2--2--2--2--2--2-0--0-0-22-2--2--2---|
E|--0--0--0--0--0--0--0-----------------0---|
  Please Please Me        like I please you
                  oh yeah
 Harmonica
e|-12-11-------------------|
B|-------14-12---14-12-----|
G|---------------------13--|  
D|-------------------------|
A|-------------------------|
E|-------------------------|

 Rhythm Guitar
   E
e|-0-0-0-0-0-0-0-0-0-0-0-0-|
B|-0-0-0-0-0-0-0-0-0-0-0-0-|
G|-1-1-1-1-1-1-1-1-1-1-1-1-| 
D|-2-2-2-2-2-2-2-2-2-2-2-2-|
A|-2-2-2-2-2-2-2-2-2-2-2-2-|
E|-0-0-0-0-0-0-0-0-0-0-0-0-|

   E                             A     E     G    A    B
e|-0--0--0--0--0--0--0--0--0--0--0--0--0----------------------|
B|-0--0--0--0--0--0--0--0--0--0--2--2--0----------------------|
G|-1--1--1--1--1--1--1--1--1--1--2--2--1----------------------|
D|-2--2--2--2--2--2--2--2--2--2--2--2--2-----5-5--7-7--9999---|
A|-2--2--2--2--2--2--2--2--2--2--0--0--2-----5-5--7-7--9999---|
E|-0--0--0--0--0--0--0--0--0--0--------0-----3-3--5-5--7777---|
  You don't need  me to  show the way,love

   E                             A     E
e|-0--0--0--0--0--0--0--0--0--0--0--0--00000------------------|
B|-0--0--0--0--0--0--0--0--0--0--2--2--00000------------------|
G|-1--1--1--1--1--1--1--1--1--1--2--2--11111------------------|
D|-2--2--2--2--2--2--2--2--2--2--2--2--22222------2-2---------|
A|-2--2--2--2--2--2--2--2--2--2--0--0--22222-----------2-2----|
E|-0--0--0--0--0--0--0--0--0--0--------00000--0-0-------------|
  Why  do  I  always  gave   to  sat, love

   A            F#m         C#m          A
e|-0--0--0--0---2--2-2--2-2-4--4--4--4-4-5--5--5--5--|
B|-2--2--2--2---2--2-2--2-2-5--5--5--5-5-5--5--5--5--|
G|-2--2--2--2---2--2-2--2-2-6--6--6--6-6-6--6--6--6--|
D|-2--2--2--2---4--4-4--4-4-6--6--6--6-6-7--7--7--7--|
A|-0--0--0--0---4--4-4--4-4-4--4--4--4-4-7--7--7--7--|
E|--------------2--2-2--2-2--------------5--5--5--5--|
   C'mon        C'mon       C'mon        C'mon
        C'mon       C'mon       C'mon        C'mon

    E                   A      B        E
e|--0--0--0--0--0--0--0-0--0-0-22-2--2--0---|
B|--0--0--0--0--0--0--0-2--2-2-44-4--4--0---|
G|--1--1--1--1--1--1--1-2--2-2-44-4--4--1---|
D|--2--2--2--2--2--2--2-2--2-2-44-4--4--2---|
A|--2--2--2--2--2--2--2-0--0-0-22-2--2--2---|
E|--0--0--0--0--0--0--0-----------------0---|
  Please Please Me        like I please you
                  oh yeah

 Harmonica
e|-12-11-------|
B|-------14-12-|
G|-------------|  
D|-------------|
A|-------------|
E|-------------|

 Rhythm Guitar
   E
e|-0-0-0-0-0-0-|
B|-0-0-0-0-0-0-|
G|-1-1-1-1-1-1-| 
D|-2-2-2-2-2-2-|
A|-2-2-2-2-2-2-|
E|-0-0-0-0-0-0-|


 Middle
   A
e|-0--0-0-0--0--0--0--0--0--0--0--0--|
B|-2--2-2-2--2--2--2--2--2--2--2--2--|
G|-2--2-2-2--2--2--2--2--2--2--2--2--|
D|-2--2-2-2--2--2--2--2--2--2--2--2--|
A|-0--0-0-0--0--0--0--0--0--0--0--0--|
E|-----------------------------------|
   I don't want to sound complaining 

   B				  E
e|-2--2--2--2--2--2--2--2--2--2--2--0--|
B|-4--4--4--4--4--4--4--4--4--4--4--0--|
G|-4--4--4--4--4--4--4--4--4--4--4--2--|
D|-4--4--4--4--4--4--4--4--4--4--4--2--|
A|-2--2--2--2--2--2--2--2--2--2--2--1--|
E|----------------------------------0--|
    you know     always rain
  but      there's         in my heart

   A
e|-0--0-0-0--0--0--0--0--0--0--0--0--|
B|-2--2-2-2--2--2--2--2--2--2--2--2--|
G|-2--2-2-2--2--2--2--2--2--2--2--2--|
D|-2--2-2-2--2--2--2--2--2--2--2--2--|
A|-0--0-0-0--0--0--0--0--0--0--0--0--|
E|-----------------------------------|
  I do all the  pleasing  with  you


   B				  E
e|-2--2--2--2--2--2--2--2--2--2--2--0--|
B|-4--4--4--4--4--4--4--4--4--4--4--0--|
G|-4--4--4--4--4--4--4--4--4--4--4--2--|
D|-4--4--4--4--4--4--4--4--4--4--4--2--|
A|-2--2--2--2--2--2--2--2--2--2--2--1--|
E|----------------------------------0--|
  It's  so  hard  to  reason  with  you

   A           B                  E
e|-0-0--0--0-0-2--2-2--2--2--2--2-0-0--|
B|-2-2--2--2-2-4--4-4--4--4--4--4-0-0--|
G|-2-2--2--2-2-4--4-4--4--4--4--4-1-1--|
D|-2-2--2--2-2-4--4-4--4--4--4--4-2-2--|
A|-0-0--0--0-0-2--2-2--2--2--2--2-2-2--|
E|--------------------------------0-0--|
  Oh yeah, Why do you make me blue?

 Harmonica
e|-12-11-------------------|
B|-------14-12---14-12-----|
G|---------------------13--|  
D|-------------------------|
A|-------------------------|
E|-------------------------|

 Rhythm Guitar
   E
e|-0-0-0-0-0-0-0-0-0-0-0-0-|
B|-0-0-0-0-0-0-0-0-0-0-0-0-|
G|-1-1-1-1-1-1-1-1-1-1-1-1-| 
D|-2-2-2-2-2-2-2-2-2-2-2-2-|
A|-2-2-2-2-2-2-2-2-2-2-2-2-|
E|-0-0-0-0-0-0-0-0-0-0-0-0-|

   E                             A     E     G    A    B
e|-0--0--0--0--0--0--0--0--0--0--0--0--0----------------------|
B|-0--0--0--0--0--0--0--0--0--0--2--2--0----------------------|
G|-1--1--1--1--1--1--1--1--1--1--2--2--1----------------------|
D|-2--2--2--2--2--2--2--2--2--2--2--2--2-----5-5--7-7--9999---|
A|-2--2--2--2--2--2--2--2--2--2--0--0--2-----5-5--7-7--9999---|
E|-0--0--0--0--0--0--0--0--0--0--------0-----3-3--5-5--7777---|
  Last night I said this words to my girl

   E                             A     E
e|-0--0--0--0--0--0--0--0--0--0--0--0--00000------------------|
B|-0--0--0--0--0--0--0--0--0--0--2--2--00000------------------|
G|-1--1--1--1--1--1--1--1--1--1--2--2--11111------------------|
D|-2--2--2--2--2--2--2--2--2--2--2--2--22222------2-2---------|
A|-2--2--2--2--2--2--2--2--2--2--0--0--22222-----------2-2----|
E|-0--0--0--0--0--0--0--0--0--0--------00000--0-0-------------|
  I know you ne - ver ev - en  try  girl

   A            F#m         C#m          A
e|-0--0--0--0---2--2-2--2-2-4--4--4--4-4-5--5--5--5--|
B|-2--2--2--2---2--2-2--2-2-5--5--5--5-5-5--5--5--5--|
G|-2--2--2--2---2--2-2--2-2-6--6--6--6-6-6--6--6--6--|
D|-2--2--2--2---4--4-4--4-4-6--6--6--6-6-7--7--7--7--|
A|-0--0--0--0---4--4-4--4-4-4--4--4--4-4-7--7--7--7--|
E|--------------2--2-2--2-2--------------5--5--5--5--|
   C'mon        C'mon       C'mon        C'mon
        C'mon       C'mon       C'mon        C'mon

    E                   A      B        E
e|--0--0--0--0--0--0--0-0--0-0-22-2--2--0---|
B|--0--0--0--0--0--0--0-2--2-2-44-4--4--0---|
G|--1--1--1--1--1--1--1-2--2-2-44-4--4--1---|
D|--2--2--2--2--2--2--2-2--2-2-44-4--4--2---|
A|--2--2--2--2--2--2--2-0--0-0-22-2--2--2---|
E|--0--0--0--0--0--0--0-----------------0---|
  Please Please Me        like I please you
                  oh yeah

    E                   A      B        E
e|--0--0--0--0--0--0--0-0--0-0-22-2--2--0---|
B|--0--0--0--0--0--0--0-2--2-2-44-4--4--0---|
G|--1--1--1--1--1--1--1-2--2-2-44-4--4--1---|  X2
D|--2--2--2--2--2--2--2-2--2-2-44-4--4--2---|
A|--2--2--2--2--2--2--2-0--0-0-22-2--2--2---|
E|--0--0--0--0--0--0--0-----------------0---|
   O  h     y  e  ah   like I please you
  
 Harmonica
e|-12-11-------------------|
B|-------14-12---14-12-----|
G|---------------------13--|  X2
D|-------------------------|
A|-------------------------|
E|-------------------------|


Ending

   E    G     C     B     E
e|0-----3-----8-----7-----0- -------|
B|0-----3-----8-----7-----0---------|
G|1-----4-----9-----8-----1---------|
D|2-----5-----10----9-----2---------|
A|2-----5-----10----9-----2---------|
E|0-----3-----8-----7-----0---------|



That was a lot of work, I hope you appreciate it. I if have any errors,
please understand, I typed this whole thing, it was pretty hard... 
But I enjoyed it. And I hope it is usefull to other people here in UG.

Thanks, please comment and rate.


************************************

| /   slide up
| \   slide down
| h   hammer-on
| p   pull-off
| ~   vibrato
| +   harmonic
| x   Mute note
| b   Bend
| pb  Pre-bend
| br  Bend release
| pbr Pre-bend release
| brb Bend release bend

************************************

            
            
Suggest correction
Creating personal tab
Creating personal tab
You can edit any tab online and save it as your Personal.

You can edit, replace or remove any tab part or add personal notes – all changes will be seen only by you.

Personal tabs can be accessed anytime from any device, even offline.
Learn more »
comments
print report bad tab
1 comment total.
0 reply
Somolyot 10 Aug 19, 2010 04:32 PM

Very nice, love the harmonica's intro.

guest
You may want to rate the tab now too:
select rating
Wanna post a correction for this tab? Suggest correction