Oops, an error
Loading. Please wait.
We have an official Things We Said Today tab made by UG professional guitarists. Check out the tab »
×
7,842 views 18 this week
no commentswrite comment
1 2 3 4 5
1 last vote to show rating
add to favorites
×
Save as Personal and add changes to this tab that will be seen only by you. Learn more ›
×
You can save this tab as Personal to edit and correct it or add notes. All changes will be seen only by you. Learn more »
launch autoscroll
font size
0
reset
guitar tuner
edit
Autoscroll
slow
fast
+/-
esc
set tempo
stop
Author
Things We Said Today
The Beatles
Written by John Lennon and Paul McCartney; released on single "A Hard Day's 
Night / Things We Said Today" and on album "A Hard Day's Night"

A simple but great song :-)

Intro:
G|------- ------- ------- -------|------- ------- ------- -------|
D|-------------------------------|-------------------------------|
A|-------------------------------|-------------------------------|
E|-------------------------------|-------------------------------|
 


G|------- ------- ------- -------|------- ------- ------- -------|
D|7---------------------------5--|7------------------------------|
A|----------------7---7----------|----------------7---7----------|
E|-------------------------------|-------------------------------|


Verse:
G|------- ------- ------- -------|------- ------- ------- -------|
D|7---------------------------5--|7-----------------------5------|
A|----------------7--------------|----------------7--------------|
E|-------------------------------|-------------------------------|
  You say         you will    love            me,


G|------- ------- ------- -------|------- ------- ------- -------|
D|7-----------7-----------5---7--|7-----------7-----------5---7--|
A|----------------7--------------|----------------7--------------|
E|-------------------------------|-------------------------------|
  if  I           have to     go


G|------- ------- ------- -------|------- ------- ------- -------|
D|7-----------7-----------5------|7-----------7-----------5------|
A|----------------7--------------|----------------7--------------|
E|-------------------------------|-------------------------------|
  You'll be       thinking    of              me,


G|------- ------- ------- -------|------- ------- ------- -------|
D|7-----------7-----------5------|7-----------7-----------7------|
A|----------------7---7----------|----------------7---7----------|
E|-------------------------------|-------------------------------|
  somehow         I   will    know


G|------- ------- ------- -------|------- ------- ------- -------|
D|-------------------------------|-------------------------------|
A|-------------------------------|-------------------------------|
E|8-----------8---8---8-------8--|8-----------8---8---8---8------|
  Some day,          when I'm lone     -      ly,


G|------- ------- ------- -------|------- ------- ------- -------|
D|-------------------------------|8-------8-------8---8---8---8--|
A|8-----------8---8---8---8---8--|-------------------------------|
E|-------------------------------|-------------------------------|
  wishing     you     weren't so  far     a - way,


G|------- ------- ------- -------|------- ------- ------- -------|
D|7-----------7------------------|7-----------7-----------5------|
A|----------------7-----------7--|----------------7--------------|
E|-------------------------------|-------------------------------|
  Then I          will re  -  mem      -      ber


G|------- ------- ------- -------|------- ------- ------- -------|
D|7-----------7------------------|7-----------7---7--------------|
A|----------------7-------7------|-------------------------------|
E|-------------------------------|-------------------------------|
  Things we       said to  -  day


G|------- ------- ------- -------|
D|7-----------7---7--------------|
A|----------------------------7--|
E|-------------------------------|


Verse:
G|------- ------- ------- -------|------- ------- ------- -------|
D|7-----------7-----------5------|7-----------7-----------5------|
A|----------------7--------------|----------------7--------------|
E|-------------------------------|-------------------------------|
  You say         you'll be   mine,           girl


G|------- ------- ------- -------|------- ------- ------- -------|
D|7-----------7-----------5------|7-----------7------------------|
A|----------------7--------------|----------------7-------7------|
E|-------------------------------|-------------------------------|
  till the        end of      time


G|------- ------- ------- -------|------- ------- ------- -------|
D|7-----------7------------------|7-----------7-----------5------|
A|----------------7-------7------|----------------7--------------|
E|-------------------------------|-------------------------------|
  These days      such a      kind,           girl,


G|------- ------- ------- -------|------- ------- ------- -------|
D|7-----------7------------------|7-----------7-----------7------|
A|----------------7-------7------|----------------7--------------|
E|-------------------------------|-------------------------------|
  seems so        hard to     find


G|------- ------- ------- -------|------- ------- ------- -------|
D|-------------------------------|-------------------------------|
A|-------------------------------|-------------------------------|
E|8-----------8---8---8-------8--|8-----------8---8---8-------8--|
  Some day,            when we're drea   -    ming,


G|------- ------- ------- -------|------- ------- ------- -------|
D|-------------------------------|8-----------8---8---8-------8--|
A|8-----------8---8---8-------8--|-------------------------------|
E|-------------------------------|-------------------------------|
  deep in     love,       not a   lot to      say,


G|------- ------- ------- -------|------- ------- ------- -------|
D|7-----------7---------------5--|7-----------7-----------5------|
A|----------------7--------------|----------------7--------------|
E|-------------------------------|-------------------------------|
  Then we         will re  -  mem      -      ber


G|------- ------- ------- -------|------- ------- ------- -------|
D|7-----------7------------------|7-----------7---7---7-------7--|
A|----------------7-------7------|-------------------------------|
E|-------------------------------|-------------------------------|
  Things we       said to  -  day

Bridge:
G|------- ------- ------- -------|------- ------- ------- -------|
D|7---------------7---7-------7--|-------------------------------|
A|-------------------------------|5-----------5---5---5-------5--|
E|-------------------------------|-------------------------------|
  Me, I'm     just    a       lu  -   cky     kind,


G|4------ ----4-- 4---4-- ----4--|------- ------- ------- -------|
D|-------------------------------|-------------------------------|
A|-------------------------------|7-----------7---7---7-------7--|
E|-------------------------------|-------------------------------|
  love to     hear    you     say         that    love is     love


G|------- ------- ------- -------|------- ------- ------- -------|
D|7------------------------------|------------4---7-------4------|
A|------------4---7-------4------|5------------------------------|
E|-------------------------------|-------------------------------|
              And though we   may     be      blind,


G|------- ------- ------- -------|------- ------- ------- -------|
D|9------------------------------|8-----------8---8-----------8--|
A|----------------9-----------9--|-------------------------------|
E|-------------------------------|-------------------------------|
  love is     here    to      stay,       and     that's e -  nough

Verse:
G|------- ------- ------- -------|------- ------- ------- -------|
D|7------------------------------|7-----------------------5---7--|
A|----------------7-----------7--|----------------7--------------|
E|-------------------------------|-------------------------------|
          To      make you    mine,           girl,


G|------- ------- ------- -------|------- ------- ------- -------|
D|7-----------7-----------5---7--|7-----------7------------------|
A|----------------7--------------|----------------7-------7------|
E|-------------------------------|-------------------------------|
  be  the         on- ly      one


G|------- ------- ------- -------|------- ------- ------- -------|
D|7-----------7-----------5------|7-----------7-----------5------|
A|----------------7--------------|----------------7--------------|
E|-------------------------------|-------------------------------|
  Love me         all the     time,           girl,


G|------- ------- ------- -------|------- ------- ------- -------|
D|7-----------7-----------5------|7-----------7-----------7------|
A|----------------7--------------|----------------7--------------|
E|-------------------------------|-------------------------------|
  we'll go        on  and     on


G|------- ------- ------- -------|------- ------- ------- -------|
D|-------------------------------|------------------------7---7--|
A|-------------------------------|-------------------------------|
E|8-----------8---8---8-------8--|8-------8-------8---8----------|
  Some day,            when we're drea   -    ming,


G|------- ------- ------- -------|------- ------- ------- -------|
D|------------------------7------|8-----------8---8---8-------8--|
A|8-----------8---8---8-------8--|-------------------------------|
E|-------------------------------|-------------------------------|
  deep in     love,       not a   lot to      say,


G|------- ------- ------- -------|------- ------- ------- -------|
D|7------------------------------|7-----------7-----------5------|
A|----------------7-----------7--|----------------7--------------|
E|-------------------------------|-------------------------------|
  Then we         will re  -  mem      -      ber


G|------- ------- ------- -------|------- ------- ------- -------|
D|7-----------7------------------|7-----------7---7---7-------7--|
A|----------------7-------7------|-------------------------------|
E|-------------------------------|-------------------------------|
  Things we       said to  -  day

Bridge:
G|------- ------- ------- -------|------- ------- ------- -------|
D|7------------------------------|------------4---7---7---4------|
A|------------4---7---7---4------|5------------------------------|
E|-------------------------------|-------------------------------|
  Me, I'm     just    a       lu  -   cky     kind,


G|4------ ------- ------- -------|------- ------- ------- -------|
D|----------------4-----------4--|-------------------------------|
A|-------------------------------|7-----------7---7---7-------7--|
E|-------------------------------|-------------------------------|
  love to     hear    you     say         that    love is     love


G|------- ------- ------- -------|------- ------- ------- -------|
D|7------------------------------|------------4---7-------4------|
A|------------4---7-------4------|5------------------------------|
E|-------------------------------|-------------------------------|
              And though we   may     be      blind,


G|------- ------- ------- -------|------- ------- ------- -------|
D|9-----------------------9------|8-------8-------8-------8------|
A|----------------9---9----------|-------------------------------|
E|-------------------------------|-------------------------------|
  love is     here    to      stay,       and     that's e -  nough

Verse:
G|------- ------- ------- -------|------- ------- ------- -------|
D|7-----------7-----------5------|7-----------7-----------5------|
A|----------------7-----------7--|----------------7--------------|
E|-------------------------------|-------------------------------|
          To      make you    mine,           girl,


G|------- ------- ------- -------|------- ------- ------- -------|
D|7-----------------------5------|7-----------7-----------5---7--|
A|----------------7--------------|----------------7--------------|
E|-------------------------------|-------------------------------|
  be  the         on- ly      one


G|------- ------- ------- -------|------- ------- ------- -------|
D|7-----------7-----------5------|7-----------7-----------5------|
A|----------------7--------------|----------------7--------------|
E|-------------------------------|-------------------------------|
  Love me         all the     time,           girl,


G|------- ------- ------- -------|------- ------- ------- -------|
D|7-----------7-----------5------|7-----------7-----------7------|
A|----------------7--------------|----------------7--------------|
E|-------------------------------|-------------------------------|
  we'll go        on  and     on


G|------- ------- ------- -------|------- ------- ------- -------|
D|-------------------------------|-------------------------------|
A|-------------------------------|-------------------------------|
E|8-------8-------8---8-------8--|8-------8-------8---8-------8--|
  Some day,            when we're drea   -    ming,


G|------- ------- ------- -------|------- ------- ------- -------|
D|------------------------7------|8-----------8---8---8---8---8--|
A|8-----------8---8---8-------8--|-------------------------------|
E|-------------------------------|-------------------------------|
  deep in     love,       not a   lot to      say,


G|------- ------- ------- -------|------- ------- ------- -------|
D|7-----------7---------------5--|7-----------7-----------5------|
A|----------------7---7----------|----------------7--------------|
E|-------------------------------|-------------------------------|
  Then we         will re  -  mem      -      ber


G|------- ------- ------- -------|------- ------- ------- -------|
D|7-----------7-----------5------|7-----------7------------------|
A|----------------7--------------|----------------7-------7------|
E|-------------------------------|-------------------------------|
  Things we       said to  -  day

Outro:
G|------- ------- ------- -------|------- ------- ------- -------|
D|7-----------7------------------|7-----------7------------------|
A|----------------7-------7------|----------------7-------7------|
E|-------------------------------|-------------------------------|
repeat and fade...

Please e-mail me for any corrections.

            
            
Suggest correction
Creating personal tab
Creating personal tab
You can edit any tab online and save it as your Personal.

You can edit, replace or remove any tab part or add personal notes – all changes will be seen only by you.

Personal tabs can be accessed anytime from any device, even offline.
Learn more »
Give kudos to tab author, rate the tab!
1 2 3 4 5
comments
print report bad tab
guest
You may want to rate the tab now too:
select rating
Wanna post a correction for this tab? Suggest correction