Oops, an error
Loading. Please wait.

Think For Yourself bass

version 2
version 2

Whole song

Interactive

3,769 views 57 this week
no commentswrite comment
1 2 3 4 5
x 5
add to favorites
×
Save as Personal and add changes to this tab that will be seen only by you. Learn more ›
×
You can save this tab as Personal to edit and correct it or add notes. All changes will be seen only by you. Learn more »
launch autoscroll
font size
0
reset
guitar tuner
backing track
0:00
0:00
edit
Autoscroll
slow
fast
+/-
esc
set tempo
stop
Author
  --------------------------------------------------------------

  THE BEATLES - THINK FOR YOURSELF (Harrison) Released on RUBBER 
                SOUL album on December, 3rd, 1965.

  --------------------------------------------------------------

  Bass tab by:PJVillanueva



      
  Paul recorded two basses for this song. One conventionally and
  another with his Epiphone Casino tuned down and played through 
  a fuzz box. You can find this second bass part and its tuning
  on my THINK FOR YOURSELF guitar tab. The conventional bass part 
  is presented here.
  



  I've got a word or two
  To say about the things that you do.
  You're telling all those lies
  About the good things that we can have
  If we close our eyes.

  Do what you want to do
  And go where you're going to.
  Think for yourself
  'Cause I won't be there with you.

  I left you far behind,
  The ruins of the life that you had in mind.
  And though you still can't see
  I know your mind's made up
  You're gonna cause more misery.

  Do what you want to do
  And go where you're going to.
  Think for yourself
  'Cause I won't be there with you.

  Although your mind's opaque
  Try thinking more if just for your own sake.
  The future still looks good
  And you've got time to rectify
  All the things that you should.

  Do what you want to do
  And go where you're going to.
  Think for yourself
  'Cause I won't be there with you.

  Do what you want to do
  And go where you're going to.
  Think for yourself
  'Cause I won't be there with you.
  Think for yourself
  'Cause I won't be there with you.





                                     
                             x                            x    x
   G|------- ------- ------- -------|------- ------- ------- -------|
   D|5-------5-------5-------5------|5-------5-------5----5----6----|
   A|-------------------------------|-------------------------------|
   E|-------------------------------|-------------------------------|



     00:03
     x
   G|------- ------- ------- -------|------- ------- ------- -------|
   D|7-----------7---7---7----------|-------------------------------|
   A|----------------------------7--|5-----------5-5H7----5----3----|
   E|-------------------------------|-------------------------------|
                 I've        a       word        or  two
                     got



   G|------- ------- ------- -------|------- ------- ------- -------|
   D|-------------------------------|-------------------------------|
   A|-------------------------------|----------------------------5--|
   E|6-----------6---6---6-------6-6/8-----------8---8---8----------|
                 To  say     about       the     things  that    you 




   G|------- ------- ------- -------|------- ------- ------- -------|
   D|5-----------5---5---5----------|----5-------5---5---5-------6--|
   A|----------------------------5--|5------------------------------|
   E|-------------------------------|-------------------------------|
         do


     00:14

   G|------- ------- ------- -------|------- ------- ------- -------|
   D|7-----------7---7---7----------|-------------------------------|
   A|----------------------------7--|5---5-------5-5H7---5-----3----|
   E|-------------------------------|-------------------------------|
                 You're              all       those lies
                     telling



   G|------- ------- ------- -------|------- ------- ------- -------|
   D|-------------------------------|-------------------------------|
   A|-------------------------------|----------------------------5--|
   E|6-----------6---6---6-------6-/|8-----------8---8---8----------|
                 About       the good    things  that    we      can 




                                                             x x x
   G|------- ------- ------- -------|------- ------- ------- -------|
   D|5---5-------5---5---5-------5-/|7---7-------7---7---7----------|
   A|-------------------------------|-------------------------------|
   E|-------------------------------|-------------------------------|
         have    if      we      close   our     eyes




                                                             X x x
   G|------- ------- ------- -------|------- ------- ------- -------|
   D|--------2-------5---5---2------|--------2-------5---5---2------|
   A|3---3--------------------------|3---3--------------------------|
   E|-------------------------------|-------------------------------|
     Do      what    want        do                              and
                 you     to


                                              
                                         xx    xx    XX   xx   xx
   G|------- ------- ------- -------|------- ------- ------- -------|
   D|5---5--------------------------|----3--------------------------|
   A|--------5---------------5-----3/5---------5-----3----1---------|
   E|----------------3---3----------|--------------------------3----|
     go      where   going       to
                 you're



   G|------- ------- ------- -------|------- ------- ------- -------|
   D|-------------------------------|----------------------------3--|
   A|1-------1-------1---1---1-----/|5-------5-------5---5---5------|
   E|-------------------------------|-------------------------------|
     Think   for yourself   'cause   I       won't   there   with 
                                                 be              you



                                                          x    X
   G|------- ------- ------- -------|------- ------- ------- -------|
   D|5-------5---5---5---5---5------|5-------5---5---5----5----6----|
   A|----------------------------5--|-------------------------------|
   E|-------------------------------|-------------------------------|



     00:40
     X
   G|------- ------- ------- -------|------- ------- ------- -------|
   D|7-----------7---7---7----------|-------------------------------|
   A|------------------------7---6--|5-----------5--5H7---5----3----|
   E|-------------------------------|-------------------------------|
                 I   left    you     far         behind




   G|------- ------- ------- -------|------- ------- ------- -------|
   D|-------------------------------|-------------------------------|
   A|-------------------------------|----------------------------5--|
   E|6-----------6---6---6-----/-8--|8-----------8---8---8----------|
                 The ruins       of      the     life    that    you 




   G|------- ------- ------- -------|------- ------- ------- -------|
   D|5-----------5---5---5----------|5---5-------5---5---5-------6--|
   A|----------------------------5--|5------------------------------|
   E|-------------------------------|-------------------------------|
         had   in    mind


     00:51

   G|------- ------- ------- -------|------- ------- ------- -------|
   D|7-----------7---7---7----------|-------------------------------|
   A|------------------------7---6--|5-----------5--5H7---5----3----|
   E|-------------------------------|-------------------------------|
                 And though  you     still       can see




   G|------- ------- ------- -------|------- ------- ------- -------|
   D|-------------------------------|-------------------------------|
   A|-------------------------------|----------------------------5--|
   E|6-----------6---6---6-------6-/|8-----------8---8---8----------|
                 I   know        mind's  made    up      you're  gonna
                         your


                                                             X x x
   G|------- ------- ------- -------|------- ------- ------- -------|
   D|5-----------5---5---5----------|7-----------7---7---7----------|
   A|-------------------------------|-------------------------------|
   E|-------------------------------|-------------------------------|
                 cause   more    misery


     01:02
                                                         xx     x
   G|------- ------- ------- -------|------- ------- ------- -------|
   D|--------2-------5---5---2------|--------2-------5-------2------|
   A|3------------------------------|3---3--------------------------|
   E|-------------------------------|-------------------------------|
     Do     what you want to     do                              and



                                                     x x   X xx
   G|------- ------- ------- -------|------- ------- ------- -------|
   D|5---5--------------------------|-----3-------------------------|
   A|--------5---------------5-----3/5---------5-----3----1---------|
   E|----------------3--------------|--------------------------3----|
     go      where   going       to
                 you're



   G|------- ------- ------- -------|------- ------- ------- -------|
   D|-------------------------------|----------------------------3--|
   A|1-------1-------1---1---1-----/|5-------5-------5--------------|
   E|-------------------------------|-------------------------------|
     Think   for yourself   'cause   I       won't   there   with 
                                                 be              you



                                                          x    x
   G|------- ------- ------- -------|------- ------- ------- -------|
   D|5-------5---5---5---5---5------|5-------5---5---5----5----6----|
   A|-------------------------------|-------------------------------|
   E|-------------------------------|-------------------------------|


   
     01:17
     x
   G|------- ------- ------- -------|------- ------- ------- -------|
   D|7-----------7-------7----------|-------------------------------|
   A|------------------------7---6--|5-----------5-5/7----5----3----|
   E|-------------------------------|-------------------------------|
                 Although    your    mind's      opaque  




   G|------- ------- ------- -------|------- ------- ------- -------|
   D|-------------------------------|-------------------------------|
   A|-------------------------------|----------------------------5--|
   E|6-----------6---6---6---------/|8-----------8---8---8----------|
                 Try thinking    more    if      just    for     your 




   G|------- ------- ------- -------|------- ------- ------- -------|
   D|5-----------5---5---5----------|5-----------5---5---5---5---6--|
   A|-------------------------------|-------------------------------|
   E|-------------------------------|-------------------------------|
         own     sake 


     01:28

   G|------- ------- ------- -------|------- ------- ------- -------|
   D|7-----------7---7---7----------|-------------------------------|
   A|----------------------------7--|5-----------5-5/7----5----3----|
   E|-------------------------------|-------------------------------|
                 The future          still       looks  good




   G|------- ------- ------- -------|------- ------- ------- -------|
   D|-------------------------------|-------------------------------|
   A|-------------------------------|----------------------------5--|
   E|6-----------6---6---6--------/-|8-----------8---8---8----------|
                 And you've      time        to  rectify
                         got


                                                             X x x
   G|------- ------- ------- -------|------- ------- ------- -------|
   D|5-----------5---5---5----------|7-----------7---7---7----------|
   A|-------------------------------|-------------------------------|
   E|-------------------------------|-------------------------------|
         all     the     things  that    you     should



     01:40
                                                             X X
   G|------- ------- ------- -------|------- ------- ------- -------|
   D|--------2-------5---5---2------|--------2-------5---5---2------|
   A|3---3--------------------------|3---3--------------------------|
   E|-------------------------------|-------------------------------|
     Do     what you want        do                              and
                         to



                                         x     x     XX    x     x
   G|------- ------- ------- -------|------- ------- ------- -------|
   D|5---5--------------------------|-----3-------------------------|
   A|--------5---------------5-----/|5---------5-----3----1---------|
   E|----------------3--------------|--------------------------3----|
     go      where   going       to
                 you're



   G|------- ------- ------- -------|------- ------- ------- -------|
   D|-------------------------------|----------------------------3--|
   A|1-------1-------1---1---1-----/|5-------5---5---5---5---5------|
   E|-------------------------------|-------------------------------|
     Think   for yourself   'cause   I       won't   there   with 
                                                 be              you



                                                         x     XX
   G|------- ------- ------- -------|------- ------- ------- -------|
   D|5-------5-------5---5---5------|5-------5-------5---5---5------|
   A|----------------------------5--|-------------------------------|
   E|-------------------------------|-------------------------------|


      
     01:54
     X                                                   x x x x X
   G|------- ------- ------- -------|------- ------- ------- -------|
   D|-------------------------------|--------2-------5---5---2------|
   A|1-------3-------1---3-------1--|3---------------------------5--|
   E|-------------------------------|-------------------------------|   
     Do      what    want        do                              and
                 you     to



                                             x x     xx      X
   G|------- ------- ------- -------|------- ------- ------- -------|
   D|5-------5----------------------|--------3----------------------|
   A|----------------5-------5-----/|5-----------5-\-3---1----------|
   E|-------------------------------|------------------------3------|
     go      where   going       to
                 you're


     02:02

   G|------- ------- ------- -------|------- ------- ------- -------|
   D|-------------------------------|----------------------------3--|
   A|1-------1-------1---1---1-----/|5-------5---5---5---5---5------|
   E|-------------------------------|-------------------------------|
     Think   for yourself   'cause   I       won't   there   with 
                                                 be              you



                                                         X X X X X
   G|------- ------- ------- -------|------- ------- ------- -------|
   D|5---------------------------5--|--------5-------5---5---5------|
   A|--------3-------3---3-------5--|-------------------------------|
   E|-------------------------------|-------------------------------|


      
     02:09

   G|------- ------- ------- -------|------- ------- ------- -------|
   D|-------------------------------|-------------------------------|
   A|1-------1-------1---1---1-----/|5-------5---5---5---5---5------|
   E|-------------------------------|-------------------------------|
     Think   for yourself   'cause   I       won't   there   with 
                                                 be              you



                                     X   x   x   X
   G|------- ------- ------- -------|------- ------- ------- -------|
   D|-------------------------------|5---5---5---5------------------|
   A|3-------3-------3---3---3------|-------------------------------|
   E|-------------------------------|-------------------------------|








        B  Bend
        R  Release
        /  Slide up
        \  Slide down
        H  Hammer-on
        P  Pull-off
        ~  Vibrato
        +  Harmonic
        x  Mute note
        .  Play note like a dot in standard notation
        ^  Ties two notes together
        (. Pause




            
            
Suggest correction
Creating personal tab
Creating personal tab
You can edit any tab online and save it as your Personal.

You can edit, replace or remove any tab part or add personal notes – all changes will be seen only by you.

Personal tabs can be accessed anytime from any device, even offline.
Learn more »
comments
print report bad tab
guest
You may want to rate the tab now too:
select rating
Wanna post a correction for this tab? Suggest correction