Oops, an error
Loading. Please wait.
We have an official Twist And Shout tab made by UG professional guitarists. Check out the tab »
×
121,837 views 63 this week
7 commentsread comments
1 2 3 4 5
x 20
add to favorites
×
Save as Personal and add changes to this tab that will be seen only by you. Learn more ›
×
You can save this tab as Personal to edit and correct it or add notes. All changes will be seen only by you. Learn more »
launch autoscroll
font size
0
reset
how to read this tab
guitar tuner
backing track
0:00
0:00
edit
Autoscroll
slow
fast
+/-
esc
set tempo
stop
                        TWIST AND SHOUT


INTRO
                               D               G                      
E------------------------------2------------------------------------
B------------------------------3------------------------------------
G------------------------------2------------------------------------
D------------------------0-----------------------0--------0---------
A------0-----2-----4-----------------------------2--------2---------
E------------------------------------------------3--------3---------
                                                                    

    A                                                                
E-------------------------------------------------------------------
B---2---------------------------------------------------------------
G---2---------------------------------------------------------------
D---2---------------------------------------------------------------
A---0-----0-----0-----0-----0---------------------------------------
E-------------------------------------------------------------------
                                                                    

         
PLAY INTRO UNDER THE VOCAL
                
Well shake it up baby now, twist and shout
Come on come on come on come on baby , now work it on out
Well work it on out  , you know you look so good
You know you got me goin' now , just like you knew you would



         Ahh            Ahh           Ahh             Ahh
E---------------------------------------0--------------3------------
B------------------------2--------------2--------------2------------
G---------2--------------2--------------2--------------2------------
D---------2-----2-----2--2-----2-----2--------2-----2---------------
A---------0--0-----0--------0-----0--------0-----0------------------
E-------------------------------------------------------------------




CONTINUE WITH THE INTRO UNDER THE VOCALS

Well shake it up baby now, twist and shout
Come on come on come on come on baby , now work it on out
You know you twist it little girl , you know you twist so fine
Come on and twist a little closer now, and let me know that you're mine 


Well shake it up baby now, twist and shout
Come on come on come on come on baby , now work it on out
You know you twist it little girl , you know you twist so fine
Come on and twist a little closer now, and let me know that you're mine 



Well shake it shake it shake it baby now
Well shake it shake it shake it baby now
Well shake it shake it shake it baby now

 

GUITAR BREAK           
                                                         ETC
E-------------------------------------------------------------------
B------------------------------3-----2-----------------------------
G------------------------4-----4-----2-----2-----4--2---------------
D---------4--------4-----5-----------------2-----5--4---------------
A---------5--------5------------------------------------------------
E-------------------------------------------------------------------


Tabbed by John Constantine


I also have an acoustic guitar arrangement of this song
 ...email me if you are interested 



            
            
Suggest correction
Creating personal tab
Creating personal tab
You can edit any tab online and save it as your Personal.

You can edit, replace or remove any tab part or add personal notes – all changes will be seen only by you.

Personal tabs can be accessed anytime from any device, even offline.
Learn more »
comments
print report bad tab
7 comments total. Showing first comments.
0 reply
RCDskatr182 0 May 17, 2002 08:00 PM

im interested in the acoustic version can you post it?

0 reply
mildlygoodlook 10 Sep 02, 2006 03:35 AM

This tab is good compared to what else you can find out there.

0 reply
ironman92 10 Aug 06, 2007 04:55 PM

this song rocks. somebody put a right tab for once

guest
Wanna post a correction for this tab? Suggest correction