Oops, an error
Loading. Please wait.
We have an official Two Of Us tab made by UG professional guitarists. Check out the tab »
×

Two Of Us chords

940 views 21 this week
no commentswrite comment
1 2 3 4 5
x 7
add to favorites
×
Save as Personal and add changes to this tab that will be seen only by you. Learn more ›
×
You can save this tab as Personal to edit and correct it or add notes. All changes will be seen only by you. Learn more »
launch autoscroll
font size
0
reset
transpose
0
reset
simplify chords
display chords
guitar tuner
edit
Autoscroll
slow
fast
+/-
esc
set tempo
stop
Author
Difficulty
maguri [tm] 32,520
intermediate
About this tab version
Full and well-aligned chords for vocal and instrumental parts / tab for intro and chorus / suggestions for voicings. Was this info helpful? Yes No
Strumming
There is no strumming pattern for this song yet. and get +5 IQ
---------------------------------------------------------------------------
                    Two of Us – The Beatles
---------------------------------------------------------------------------
Tabbed by: maguri
Tuning: Standard

The Beatles
Two of Us 
(Lennon/McCartney)

From: "Let it Be" (1970)

---------------------------------------------------------------------------

INTRO lick
                                    G
  1 + 2 + 3 + 4 +  1 + 2 + 3 + 4 +  1 + 2 + 3 + 4 +  1 + 2 + 3 + 4 +  
e|--7---7---7---0-|--7---7---7---0-|--7---7---7---0-|--7---7---7---0-|
B|----------------|----------------|----------------|----------------|
G|7---7-------7---|7---7-------7---|7---7-------7---|7---7-------7---|
D|----------------|----------------|----------------|----------------|
A|----------------|----------------|----------------|----------------|
E|----------------|----------------|----------------|----------------|


CHORUS
  G   G/B G/C D        C    G   G/B G/C D        C
  1 + 2 + 3 + 4 +  1 + 2 +  1 + 2 + 3 + 4 +  1 + 2 + 
e|3-3-3-------2---|2---0---|3-3-3-------2---|2---0---|
B|3-3-3-------3---|3---1---|3-3-3-------3---|3---1---|
G|0-0-0-0-----2---|2---0---|0-0-0-0-----2---|2---0---|
D|0---0-x-----0---|0---2---|0---0-x-----0---|0---2---|
A|x-----2---3-----|----3---|x-----2---3-----|----3---|
E|3---------------|--------|3---------------|--------|
  G   G/A G/B C       G
  1 + 2 + 3 + 4 + 5 + 1 + 2 + 3 + 4 +  
e|3-3-3-------0---0--|3---------------|
B|3-3-3-------1---1--|3---------------|
G|0-0-0-0---0-0---0--|0---------------|
D|0---0-0---x-2---2--|0---------------|
A|x-----0---2-3---3--|x---------------|
E|3------------------|3---------------|

---------------------------------------------------------------------------
CHORDS

       E-A-D-G-B-e
G      3-x-0-0-3-3
C      x-3-2-0-1-3
C/B    x-2-x-0-1-3
Am7    x-0-2-2-1-3

---------------------------------------------------------------------------

INTRO
|   N.C.   |   %   |   G   |   %   |
     (lick only)   (lick with chords)

VERSE
G
Two of us riding nowhere 
                   C    C/B    Am7
Spending someone's hard earned pay
G
You and me Sunday driving
             C  C/B Am7     [ G ]
Not arriving on our way back home


CHORUS
G   G/B G/C D       D      C  [ G ]
              We're on our way home
G   G/B G/C D       D      C  [ G ]
              We're on our way home
G   G/A G/B C       C     G
              We're going home
                          (break)


INTRO
|   N.C.   |   %   |   G   |   %   |
     (lick only)   (lick with chords)


VERSE
G
Two of us sending postcards
                C  C/B Am7
Writing letters on my  wall
G
You and me burning matches
                C  C/B Am7     [ G ]
Lifting latches on our way back home


CHORUS
G   G/B G/C D       D      C  [ G ]
              We're on our way home
G   G/B G/C D       D      C  [ G ]
              We're on our way home
G   G/A G/B C       C     | G | % |
              We're going home
                          (break)


MIDDLE 8
Bb             Dm
You and I have memories
Gm              Am                  Am7       D7
Longer than the road that stretches out ahead


VERSE
G
Two of us wearing raincoats
              C  C/B Am7
Standing solo in the sun
G
You and me chasing paper
                C  C/B Am7     [ G ]
Getting nowhere on our way back home


CHORUS
G   G/B G/C D       D      C  [ G ]
              We're on our way home
G   G/B G/C D       D      C  [ G ]
              We're on our way home
G   G/A G/B C       C     | G | % |
              We're going home
                          (break)


MIDDLE 8
Bb             Dm
You and I have memories
Gm              Am                  Am7       D7
Longer than the road that stretches out ahead


 [Verse]
G
Two of us wearing raincoats
              C  C/B Am7
Standing solo in the sun
G
You and me chasing paper
                C  C/B Am7      G
Getting nowhere on our way back home


CHORUS
G   G/B G/C D       D      C  [ G ]
              We're on our way home
G   G/B G/C D       D      C  [ G ]
              We're on our way home
G   G/A G/B C       C     | G ] 
              We're going home
                          (break)


OUTRO
|   N.C.   |   %   |   G   |   %   |
     (lick only)   (lick with chords)
  We’re going home ...   better believe it ...

|   G   |   %   |
(whistling) Goodbye ...
|   G   |   %   |
(whistling)
|   G   |   %   |
(whistling)

(playback slowly peters out)

            
            
Suggest correction
Creating personal tab
Creating personal tab
You can edit any tab online and save it as your Personal.

You can edit, replace or remove any tab part or add personal notes – all changes will be seen only by you.

Personal tabs can be accessed anytime from any device, even offline.
Learn more »
comments
print report bad tab
guest
You may want to rate the tab now too:
select rating
Wanna post a correction for this tab? Suggest correction