Oops, an error
Loading. Please wait.

When I Get Home bass

version 1
version 1

Whole song

Interactive

1,710 views 1 this week
no commentswrite comment
1 2 3 4 5
1 last vote to show rating
add to favorites
×
Save as Personal and add changes to this tab that will be seen only by you. Learn more ›
×
You can save this tab as Personal to edit and correct it or add notes. All changes will be seen only by you. Learn more »
launch autoscroll
font size
0
reset
guitar tuner
edit
Autoscroll
slow
fast
+/-
esc
set tempo
stop
Author
When I Get Home
The Beatles
Written by John Lennon and Paul McCartney; released on "A Hard Day's Night"
album

One of my favourite songs. Just great! :-)

Refrain:
G|------- ------- ------- -------|------- ------- ------- -------|
D|-------------------------------|----------------------------7--|
A|-------------------------------|-------------------------------|
E|-------------------------------|-------------------------------|
                                                  Wo- a - o - ah


G|------- ------- ------- -------|------- ------- ------- -------|
D|--------7-------7---7---7---6--|7-------7-------7---7---7---7--|
A|-------------------------------|-------------------------------|
E|-------------------------------|-------------------------------|
                                                  Wo- a - o - ah


G|------- ------- ------- -------|------- ------- ------- -------|
D|--------7-------7---7---7---6--|7-------7-------7---7----------|
A|-------------------------------|-------------------------------|
E|-------------------------------|-------------------------------|
                                                      I've got a


G|------- ------- ------- -------|------- ------- ------- ----4--|
D|-------------------------------|5-------5-------5---5---5------|
A|5-------5-------5-------5------|-------------------------------|
E|-------------------------------|-------------------------------|
  whole   lot of  things to tell her              when I  get home


G|------- ------- ------- -------|------- ------- ------- -------|
D|7-------7-------7---7---7------|5---5---5-------5---5---5------|
A|-------------------------------|-------------------------------|
E|-------------------------------|----------------------------7--|
                                                              Come

Verse:
G|------- ------- ------- -------|------- ------- ------- -------|
D|-------------------------------|-------------------------------|
A|----------------------------7--|8-------8-------8---8---8---10-|
E|8-------8-------8---8---8------|-------------------------------|
  on                  out my  way                     cause I am


G|------- ------- ------- -------|------- ------- ------- -------|
D|-------------------------------|-------------------------------|
A|----------------------------7--|8-------8-------8---8-------10-|
E|8-------8-------8---8---8------|-------------------------------|
  gonna   see my  ba  -   by  to- day                 I've got a


G|------- ------- ------- -------|------- ------- ------- -------|
D|-------------------------------|-------------------------------|
A|----------------------------7--|8-------8-------8---8-------9--|
E|8-------8-------8---8---8------|-------------------------------|
  whole   lot of  things  got to  say                     to
                      I've

G|------- ------- ------- -------|------- ------- ------- -------|
D|-------------------------------|----------------------------7--|
A|10------10------10--10--10--9--|10------10------10--10--10-----|
E|-------------------------------|-------------------------------|
  her                                             Wo- a - o - ah

Refrain:
G|------- ------- ------- -------|------- ------- ------- -------|
D|--------7-------7---7---7---6--|7-------7-------7---7---7---7--|
A|-------------------------------|-------------------------------|
E|-------------------------------|-------------------------------|
                                                  Wo- a - o - ah

G|------- ------- ------- -------|------- ------- ------- -------|
D|--------7-------7---7---7---6--|7-------7-------7---7----------|
A|-------------------------------|----------------------------5--|
E|-------------------------------|-------------------------------|
                                                      I've got a


G|------- ------- ------- -------|------- ------- ------- -------|
D|----------------------------7--|5-------5-------5---5---5---5--|
A|5-------5-------5-------5------|-------------------------------|
E|-------------------------------|-------------------------------|
  whole   lot of  things to tell her              when I  get home


G|------- ------- ------- -------|------- ------- ------- -------|
D|7-------7-------7---7---7------|5-----5-5---5-----5-5---5------|
A|-------------------------------|-------------------------------|
E|-------------------------------|----------------------------7--|
                                                          Come on

Verse:
G|------- ------- ------- -------|------- ------- ------- -------|
D|-------------------------------|-------------------------------|
A|----------------------------7--|8-------8-------8---8---8---10-|
E|8-------8-------8---8----------|-------------------------------|
  on                      if  you please              I've got


G|------- ------- ------- -------|------- ------- ------- -------|
D|-------------------------------|-------------------------------|
A|----------------------------7--|8-------8-------8---8---8---10-|
E|8-------8-------8---8---8------|-------------------------------|
  no      time for trivi- a - li- ties                I've got a


G|------- ------- ------- -------|------- ------- ------- -------|
D|-------------------------------|-------------------------------|
A|----------------------------7--|8-------8-------8---8---8---9--|
E|8-------8-------8---8---8------|-------------------------------|
  girl    who's   waiting home for me                     to-


G|------- ------- ------- -------|------- ------- ------- -------|
D|-------------------------------|----------------------------7--|
A|10------10------10------10--9--|10------10------10--10--10-----|
E|-------------------------------|-------------------------------|
  night                                           Wo- a - o - ah

Refrain:
G|------- ------- ------- -------|------- ------- ------- -------|
D|--------7-------7---7---7---7--|7-------7-------7---7---7---7--|
A|-------------------------------|-------------------------------|
E|-------------------------------|-------------------------------|
                                                  Wo- a - o - ah

G|------- ------- ------- -------|------- ------- ------- -------|
D|--------7-------7---7---7---7--|7-------7-------7---7----------|
A|-------------------------------|-------------------------------|
E|-------------------------------|-------------------------------|
                                                      I've got a


G|------- ------- ------- -------|------- ------- ------- -------|
D|-------------------------------|5-------5-------5---5---5---5--|
A|5-------5-------5-------5------|-------------------------------|
E|-------------------------------|-------------------------------|
  whole   lot of  things to tell her              when I  get home


G|------- ------- ------- -------|------- ------- ------- -------|
D|7-------7-------7---7---7---7--|7-------7-------7---7---7---5--|
A|-------------------------------|-------------------------------|
E|-------------------------------|-------------------------------|
                                                  When I  get

Bridge:
G|------- ------- ------- -------|------- ------- ------- -------|
D|----------------5---5----------|-------------------------------|
A|--------7---------------7------|----------------7---7----------|
E|8---------------------------8--|5-------5---8-----------8---5--|
  home    to- night   I'm gonna   hold her    tight   I'm gonna


G|------- ------- ------- -------|------- ------- ------- -------|
D|----------------5---5----------|------------------------5------|
A|------------7-----------7------|----------------7---7-------7--|
E|8-------8-------------------8--|5-------5---8------------------|
  love her till the cows  come home                       Ah, man,


G|------- ------- ------- -------|------- ------- ------- -------|
D|-------------------------------|-------------------------------|
A|8-------8---------------8---7--|10------10------------------10-|
E|----------------8---8----------|----------------10--10--10-----|
  I'll            love her    more                    till I


G|------- ------- ------- -------|------- ------- ------- -------|
D|-------------------------------|-------------------------------|
A|8-------8-------------------8--|10------10------------------10-|
E|----------------8---8---8------|----------------10--10--10-----|
  walk            out that    door                        a - gain


G|------- ------- ------- -------|------- ------- ------- -------|
D|7-------7-------7---7---7---7--|5-------5-------5---5---5------|
A|-------------------------------|-------------------------------|
E|-------------------------------|----------------------------7--|
                                                              Come

Verse:
G|------- ------- ------- -------|------- ------- ------- -------|
D|-------------------------------|-------------------------------|
A|----------------------------7--|8-------8-------8---8---8---10-|
E|8-------8-------8---8---8------|-------------------------------|
  on                      let me  through             I've got so


G|------- ------- ------- -------|------- ------- ------- -------|
D|-------------------------------|-------------------------------|
A|----------------------------7--|8-------8-------8---8---8---10-|
E|8-------8-------8---8---8------|-------------------------------|
          ma- ny  things  got to  do                  I've got
                      I've

G|------- ------- ------- -------|------- ------- ------- -------|
D|-------------------------------|-------------------------------|
A|----------------------------7--|8-------8-------8---7---8---9--|
E|8-------8-------8---8---8------|-------------------------------|
  no      business being  here with you                   this


G|------- ------- ------- -------|------- ------- ------- -------|
D|-------------------------------|----------------------------7--|
A|10------10------10------10--9--|10------10------10------10-----|
E|-------------------------------|-------------------------------|
  way                                             Wo- a - o - ah

Refrain:
G|------- ------- ------- -------|------- ------- ------- -------|
D|--------7-------7---7---7---7--|7-------7-------7---7---7---7--|
A|-------------------------------|-------------------------------|
E|-------------------------------|-------------------------------|
                                                  Wo- a - o - ah


G|------- ------- ------- -------|------- ------- ------- -------|
D|--------7-------7---7---7---7--|7-------7-------7---7----------|
A|-------------------------------|-------------------------------|
E|-------------------------------|-------------------------------|
                                                      I've got a


G|------- ------- ------- -------|------- ------- ------- -------|
D|-------------------------------|5-------5-------5---5---5---7--|
A|5-------5-------5-------5------|-------------------------------|
E|-------------------------------|-------------------------------|
  whole   lot of  things to tell her              when I  get home


G|------- ------- ------- -------|------- ------- ------- -------|
D|7-------7-------7---7---7---7--|7---7-------7-------7----------|
A|-------------------------------|----------------7-------5---4--|
E|-------------------------------|--------9---------------------|
                                  yeah                I've got a

Outro:
G|------- ------- ------- -------|------- ------- ------- -------|
D|-------------------------------|5-------5-------5---5---5------|
A|5-------5-------5---5---5------|-------------------------------|
E|-------------------------------|-------------------------------|
  whole   lot of  things to tell her              when I  get home


G|------- ------- ------- -------|------- ------- ------- -------|
D|-------------------------------|-------------------------------|
A|-------------------------------|-------------------------------|
E|8------------------------------|-------------------------------|

Please e-mail me for any corrections, or write a comment.

            
            
Suggest correction
Creating personal tab
Creating personal tab
You can edit any tab online and save it as your Personal.

You can edit, replace or remove any tab part or add personal notes – all changes will be seen only by you.

Personal tabs can be accessed anytime from any device, even offline.
Learn more »
Give kudos to tab author, rate the tab!
1 2 3 4 5
comments
print report bad tab
guest
You may want to rate the tab now too:
select rating
Wanna post a correction for this tab? Suggest correction