Oops, an error
Loading. Please wait.
We have an official While My Guitar Gently Weeps tab made by UG professional guitarists. Check out the tab »
×
3,409 views 45 this week
no commentswrite comment
1 2 3 4 5
3 more votes to show rating
add to favorites
×
Save as Personal and add changes to this tab that will be seen only by you. Learn more ›
×
You can save this tab as Personal to edit and correct it or add notes. All changes will be seen only by you. Learn more »
launch autoscroll
font size
0
reset
how to read this tab
guitar tuner
backing track
0:00
0:00
edit
Autoscroll
slow
fast
+/-
esc
set tempo
stop
Author
Difficulty
---------------------------------- ---------------------------------------------
                While my guitar gently weeps, The Beatles           
-------------------------------------------------------------------------------
Tabbed by: Rocky Demeer
E-mail: rocky6m13@gmail.com

Tuning: EADGBE 



This is Eric Clapton's solo from while my guitar gently weeps. Enjoy!





e|---------------------------------------------------------------------------|
B|------------------------13 15B16  13--------------------------------------------------|
G|-------14PB R14 12h14--------------------14-----------------------------------------------|
D|---------------------------------------------------------------------------|
A|---------------------------------------------------------------------------|
E|---------------------------------------------------------------------------|

e|---------------------------------------------------------------------------|
B|---------------------------------------------------------------------------|
G|----12h14 14B16 12h14  14B16-----------------------------------------------------------------------|
D|---------------------------------------------------------------------------|
A|---------------------------------------------------------------------------|
E|---------------------------------------------------------------------------|

e|------------------------15--------------------------------------------------|
B|---------13 15B16 15B16-----15PB R15 13-------------------------------------------------------------|
G|12h14 -----------------------------------14----------------------------------------|
D|---------------------------------------------------------------------------|
A|---------------------------------------------------------------------------|
E|---------------------------------------------------------------------------|

e|-15B17 15B17 15B17 15B17 15B17 R15 15B17 15 12----------------------15--------------------------
B|------------------------------------------------15 13 -----13 15B16----15B16 R15 13----------------|
G|-------------------------------------------------------14----------------------------14--------    
D|---------------------------------------------------------------------------|
A|---------------------------------------------------------------------------|
E|---------------------------------------------------------------------------|

e|-------------------------------------------------------------------------12 17 15B17-----------------|
B|------------------------------------------------------------------13h15------------------------------|
G|---14B16~  12 14 14B16~ 14B16~---------12-----------------------12h14--------------------------------|
D|----------------------------12h14------12s10 10 12 10 10h12------------------------------------------|
A|-----------------------------------------------------------------------------------------------------|
E|-----------------------------------------------------------------------------------------------------|





************************************

| /   slide up
| \   slide down
| h   hammer-on
| p   pull-off
| ~   vibrato
| +   harmonic
| x   Mute note
| b   Bend
| pb  Pre-bend
| br  Bend release
| pbr Pre-bend release
| brb Bend release bend

************************************

            
            
Suggest correction
Creating personal tab
Creating personal tab
You can edit any tab online and save it as your Personal.

You can edit, replace or remove any tab part or add personal notes – all changes will be seen only by you.

Personal tabs can be accessed anytime from any device, even offline.
Learn more »
Give kudos to tab author, rate the tab!
1 2 3 4 5
comments
print report bad tab
guest
You may want to rate the tab now too:
select rating
Wanna post a correction for this tab? Suggest correction