Oops, an error
Loading. Please wait.

White album bass

517 views 18 this week
no commentswrite comment
1 2 3 4 5
2 more votes to show rating
add to favorites
×
Save as Personal and add changes to this tab that will be seen only by you. Learn more ›
×
You can save this tab as Personal to edit and correct it or add notes. All changes will be seen only by you. Learn more »
launch autoscroll
font size
0
reset
guitar tuner
edit
Autoscroll
slow
fast
+/-
esc
set tempo
stop
About this tab version
Bass tabs for the whole album. Was this info helpful? Yes No
The Beatles - The Beatles (White Album)
Complete Album Bass Tabs
Compiled by Cameron Hill

Side 1
1. "Back in the U.S.S.R."
2. "Dear Prudence"
3. "Glass Onion"
4. "Ob-La-Di, Ob-La-Da"
5. "Wild Honey Pie"
6. "The Continuing Story of Bungalow Bill"
7. "While My Guitar Gently Weeps"
8. "Happiness Is a Warm Gun"

Side 2
9. "Martha My Dear"
10."I'm So Tired"
11."Blackbird"
12."Piggies"
13."Rocky Raccoon"
14."Don't Pass Me By"
15."Why Don't We Do It In The Road"
16."I Will"
17."Julia"

Side 3
18."Birthday"
19."Yer Blues"
20."Mother Nature's Son
21."Everybody's Got Something to Hide Except Me and My Monkey"
22."Sexy Sadie"
23."Helter Skelter"
24."Long Long Long"

Side 4
25."Revolution 1"
26."Honey Pie"
27."Savoy Truffle"
28."Cry Baby Cry"
29."Revolution 9"
30."Good Night"

The Beatles - The White Album – Side 1 (1968)
1. Back in the U.S.S.R (Lennon/McCartney)
[Intro
]
 (bass enters in at 0:09)
G|-----------------------------------------------------------------|
D|-----------------------------------------------------------------|
A|-7-7-7-7-7-7-7-7-7-7-7-7-7-7-7-7-7-7-7-7-7-7-7-7-7-7-7-7-7-7-7-7-|
E|-----------------------------------------------------------------|

[Verse
]
G|-2-2-0-0-------------------2-----|
D|---------2-2-----0-0-0-0-3---3-0-|
A|-------------3-3-----------------|
E|---------------------------------|

G|-----------0---------------2-----|
D|---------0---2---0-0-0-0-3---3-0-|
A|-3-3-3-3-------3-----------------|
E|---------------------------------|
Play 2x

[Chorus
]
G|-2-2-2-2-2-2-2-2-5-5-5-5-5-5-5-5-7-7-7-7-7-7-7-7-7-|
D|---------------------------------------------------|
A|---------------------------------------------------|
E|---------------------------------------------------|

[fill
]
G|---------------------------------|
D|-7-7-7-7-7-7-7-7-7-7-7-7-7-7-7-7-|
A|---------------------------------|
E|---------------------------------|

[Verse
]
G|-2-2-0-0-------------------2-----|
D|---------2-2-----0-0-0-0-3---3-0-|
A|-------------3-3-----------------|
E|---------------------------------|

G|-----------0---------------2-----|
D|---------0---2---0-0-0-0-3---3-0-|
A|-3-3-3-3-------3-----------------|
E|---------------------------------|
Play 2x

[Chorus
]
G|-2-2-2-2-2-2-2-2-5-5-5-5-5-5-5-5-7-7-7-7-7-7-7-7-7-|
D|---------------------------------------------------|
A|---------------------------------------------------|
E|---------------------------------------------------|

[fill
]
G|---------------------------------|
D|---------------------------------|
A|---------------------------------|
E|-5-5-5-5-5-5-5-5-5-5-5-5-5-5-5-5-|

[Bridge
]
G|-7-7-7-7-7-7-7-7-7-7-7-7-7-7-7-7-|
D|---------------------------------|
A|---------------------------------|
E|---------------------------------|

G|---------------------------------|
D|-7-7-7-7-7-7-7-7-7-7-7-7-7-7-7-7-|
A|---------------------------------|
E|---------------------------------|

G|-7-7-7-7-6-6-6-6-5-5-5-5-4-4-4-4-|
D|---------------------------------|
A|---------------------------------|
E|---------------------------------|

G|---------------------------------|
D|---------------------------------|
A|-7-7-7-7-7-7-7-7-5-5-5-5-5-5-5-5-|
E|---------------------------------|

G|---------------------------------|
D|---------------------------------|
A|---------------------------------|
E|-5-5-5-5-5-5-5-5-5-5-5-5-5-5-5-5-|

[Verse
]
G|-2-2-0-0-------------------2-----|
D|---------2-2-----0-0-0-0-3---3-0-|
A|-------------3-3-----------------|
E|---------------------------------|

G|-----------0---------------2-----|
D|---------0---2---0-0-0-0-3---3-0-|
A|-3-3-3-3-------3-----------------|
E|---------------------------------|
Play 2x

[Chorus
]
G|-2-2-2-2-2-2-2-2-5-5-5-5-5-5-5-5-7-7-7-7-7-7-7-7-7-|
D|---------------------------------------------------|
A|---------------------------------------------------|
E|---------------------------------------------------|

[fill
]
G|---------------------------------|
D|-7-7-7-7-7-7-7-7-7-7-7-7-7-7-7-7-|
A|---------------------------------|
E|---------------------------------|

[Bridge
]
G|-7-7-7-7-7-7-7-7-7-7-7-7-7-7-7-7-|
D|---------------------------------|
A|---------------------------------|
E|---------------------------------|

G|---------------------------------|
D|-7-7-7-7-7-7-7-7-7-7-7-7-7-7-7-7-|
A|---------------------------------|
E|---------------------------------|

G|-7-7-7-7-6-6-6-6-5-5-5-5-4-4-4-4-|
D|---------------------------------|
A|---------------------------------|
E|---------------------------------|

G|---------------------------------|
D|---------------------------------|
A|-7-7-7-7-7-7-7-7-5-5-5-5-5-5-5-5-|
E|---------------------------------|

G|---------------------------------|
D|---------------------------------|
A|---------------------------------|
E|-5-5-5-5-5-5-5-5-5-5-5-5-5-5-5-5-|

[Verse
]
G|-2-2-0-0-------------------2-----|
D|---------2-2-----0-0-0-0-3---3-0-|
A|-------------3-3-----------------|
E|---------------------------------|

G|-----------0---------------2-----|
D|---------0---2---0-0-0-0-3---3-0-|
A|-3-3-3-3-------3-----------------|
E|---------------------------------|
Play 2x

[Chorus
]
G|-2-2-2-2-2-2-2-2-5-5-5-5-5-5-5-5-7-7-7-7-7-7-7-7-7-|
D|---------------------------------------------------|
A|---------------------------------------------------|
E|---------------------------------------------------|

[fill
]
G|---------------------------------|
D|-7-7-7-7-7-7-7-7-7-7-7-7-7-7-7-7-|
A|---------------------------------|
E|---------------------------------|

[Outro
]
G|-2-2-0-2-2-2-2-2-2-2-0-2-2-2-2-|
D|-------------------------------|
A|-------------------------------|
E|-------------------------------|

G|-2-2-0-2-2-2-2-2-2-2-0-2-2-2-2-|
D|-------------------------------|
A|-------------------------------|
E|-------------------------------|

G|-2-2-0-2-2-2-2-2-2-2-0-2-2-2-2-|
D|-------------------------------|
A|-----------------------------0-|
E|-------------------------------|

2. Dear Prudence (Lennon/McCartney)
[INTRO
]
G|---------------------------------|---------------------------------|
D|---------------------------------|---------------------------------|
A|---------------------------------|---------------------------------|
E|---------------------------------|---------------------------------|

G|---------------------------------|---------------------------------|
D|---------------------------------|---------------------------------|
A|---------------------------------|---------------------------------|
E|---------------------------------|---------------------------------|

G|---------------------------------|---------------------------------|
D|---------------------------------|---------------------------------|
A|---------------------------------|---------------------------------|
E|---------------------------------|---------------------------------|

[VERSE
]
[00:17]
G|---------------------------------|---------------------------------|
D|-----------------12--------------|-----------------12--------------|
A|---------------------------------|---------------------------------|
E|---------------------------------|---------------------------------|

G|---------------------------------|---------------------------------|
D|-----------------12--------------|-----------------12--------------|
A|---------------------------------|---------------------------------|
E|---------------------------------|---------------------------------|

G|---------------------------------|---------------------------------|
D|-----------------12--------------|-----------------12--------------|
A|---------------------------------|---------------------------------|
E|---------------------------------|---------------------------------|

G|---------------------------------|---------------------------------|
D|-----------------12--------------|-----------------12--------------|
A|---------------------------------|---------------------------------|
E|---------------------------------|---------------------------------|

[CHORUS
]
[00:44
]
G|---------------------------------|---------------------------------|
D|-7-------0--/12--10------0--/10--|-9-------0--/9---8-------0--/8---|
A|---------------------------------|---------------------------------|
E|---------------------------------|---------------------------------|

G|---------------------------------|---------------------------------|
D|-7-------0--/12--10--------------|---------2-----------------------|
A|-------------------------5---4---|-3---5-------3-----------2---3---|
E|---------------------------------|-----------------3---5-----------|

G|---------------------------------|---------------------------------|
D|---------------------------------|---------------------------------|
A|-5-------------------------------|---------------------------------|
E|---------------------------------|---------------------------------|

[VERSE
]
[01:03
]
G|---------------------------------|---------------------------------|
D|-7---7---0--/12--10--10-----/10--|-9---9------/9---8---8---0--/8---|
A|---------------------------------|---------------------------------|
E|---------------------------------|---------------------------------|

G|---------------------------------|---------------------------------|
D|-7---7---0--/12--10--10--0--/10--|-9---9---0--/9---8---8---0--/8---|
A|---------------------------------|---------------------------------|
E|---------------------------------|---------------------------------|

G|---------------------------------|---------------------------------|
D|-7---7---0--/12--10--10--0--/10--|-9---9------/9---8---8---0--/8---|
A|---------------------------------|---------------------------------|
E|---------------------------------|---------------------------------|

G|---------------------------------|---------------------------------|
D|-7---7---0--/12--10--10-----/10--|-9---9------/9---8---8------/8---|
A|---------------------------------|---------------------------------|
E|---------------------------------|---------------------------------|

[CHORUS
]
[01:29
]
G|---------------------------------|---------------------------------|
D|---------------------------------|---------------------------------|
A|-5---5-------5---3---3-------3---|-2---2-------2---1---1-------3---|
E|---------------------------------|---------------------------------|

G|---------------------------------|---------------------------------|
D|-----------------4---------------|---------------------------------|
A|-5---5---5---7-------5---7---5---|-3-----------3---2-----------2---|
E|---------------------------------|---------------------3---5-------|

G|---------------------------------|---------------------------------|
D|---------------------------------|---------------------------------|
A|-5-------------------------------|---------------------------------|
E|---------------------------------|---------------------------------|

[INTERLUDE
]
[01:47
]
G|-----7-------7-------7-------7---|-----7-------7-------7-------7---|
D|-7---------------7---------------|-7---------------7---------------|
A|---------5---------------5-------|---------5---------------5-------|
E|---------------------------------|---------------------------------|

G|-----7-------7-------7-------7---|-----7-------7-------7-------7---|
D|-7---------------7---------------|-7---------------7---------------|
A|---------5---------------5-------|---------5---------------5-------|
E|---------------------------------|---------------------------------|

G|---------------------------------|-----------------|
D|-3---3---3-------6---6---6-------|-5---5---5---7---|
A|---------------------------------|-----------------|
E|---------------------------------|-----------------|

G|---------------------------------|---------------------------------|
D|---------------------------------|---------------------------------|
A|-5-------------------------------|---------------------------------|
E|---------------------------------|---------------------------------|

[VERSE
]
[02:12
]
G|---------------------------------|---------------------------------|
D|-7---7---0--/12--10--10--0--/10--|-9---9------/9---8---8---0--/8---|
A|---------------------------------|---------------------------------|
E|---------------------------------|---------------------------------|

G|---------------------------------|---------------------------------|
D|-7---7---0--/12--10--10-----/10--|-9---9------/9---8---8---0--/8---|
A|---------------------------------|---------------------------------|
E|---------------------------------|---------------------------------|

G|---------------------------------|---------------------------------|
D|-7---7---0--/12--10--10--0--/10--|-9---9------/9---8---8------/8---|
A|---------------------------------|---------------------------------|
E|---------------------------------|---------------------------------|

G|---------------------------------|---------------------------------|
D|-7---7------/12--10--10-----/10--|-9---9------/9---8---8---0--/8---|
A|---------------------------------|---------------------------------|
E|---------------------------------|---------------------------------|

[CHORUS
]
[02:37
]
G|---------------------------------|---------------------------------|
D|---------------------------------|---------------------------------|
A|-5---5-------5---3---3---3---3---|-2---2---4---2---1---1---1---3---|
E|---------------------------------|---------------------------------|

G|---------------------------------|---------------------------------|
D|---------------------------------|---------------------------------|
A|-5---5---5---0-----------2---5---|-3-----------3---2-----------2---|
E|-----------------3---5-----------|---------------------3---5-------|

[OUTRO
]
[02:49
]
G|---------------------------------|---------------------------------|
D|---------------------------------|---------------------------------|
A|-5---------------3---3-------3---|-2-----------2---1---1---1---3---|
E|---------------------------------|---------------------------------|

G|---------------------------------|---------------------------------|
D|---------------------------------|---------------------------------|
A|-5-----------5---3---3-----------|-2-----------2---1---1-------3---|
E|---------------------------------|---------------------------------|

G|---------------------------------|---------------------------------|
D|---------------------------------|---------------------------------|
A|-5-----------5---3---3-------3---|-2-------2-------1---1-------3---|
E|---------------------------------|---------------------------------|

G|---------------------------------|---------------------------------|
D|---------------------------------|---------------------------------|
A|-5-------5-------3---3-------3---|-2-------2-------1-1---1-1-1-3---|
E|---------------------------------|---------------------------------|

G|---------------------------------|---------------------------------|
D|---------------------------------|---------------------------------|
A|-5-------5-------3---3-------3---|-2-------2-------1---1-------3---|
E|---------------------------------|---------------------------------|

[03:18
]
G|---------------------------------|---------------------------------|
D|---------------------------------|---------------------------------|
A|-5---5---5---5---5---5---5-0-5-4-|-3---3---3-----------0---3-------|
E|---------------------------------|-------------2---3---------------|

G|---------------------------------|---------------------------------|
D|---------------------------------|---------------------------------|
A|-2---2---2---------------2-------|-1---1---1-----------0---1---3---|
E|-------------0---3---5-------3---|-------------2---3---------------|

G|---------------------------------|---------------------------------|
D|---------------------------------|---------------------------------|
A|-5---5---5---0-------------3-5---|-3---------------2---------------|
E|-----------------3---5-----------|---------------------------------|

G|---------------------------------|---------------------------------|
D|---------------------------------|---------------------------------|
A|---------------------------------|---------------------------------|
E|---------------------------------|---------------------------------| .....

3. Glass Onion (Lennon/McCartney)
[INTRO
]
G|---------------------------------|---------------------------------|
D|---------------------------------|-----------------10\-----7\------|
A|---------------------------------|---------------------------------|
E|---------------------------------|---------------------------------|

[VERSE
]
G|---------------------------------|---------------------------------|
D|-7---7---7\--------------7-------|-3-------3-------3-------5-/-7---|
A|-----------------------------7---|---------------------X-----------|
E|---------------------------------|---------------------------------|

G|---------------------------------|---------------------------------|
D|-7---7---7-----------7---7-------|-3-------3-------3---3---5-------|
A|-----------------------------7---|-------------5---------------5---|
E|---------------------------------|---------------------------------|

G|---------------------------------|---------------------------------|
D|-7---7---7\----------7---7-------|-5-------3-------2---------------|
A|-----------------------------5---|-----5---------------5-----------|
E|---------------------------------|---------------------------------|

G|---------------------------------|---------------------------------|
D|---------------------------------|-5-------3-------2---------------|
A|-3-------1-------0---------------|-----5---------------5-----------|
E|---------------------3-------3---|---------------------------------|

G|---------------------------------|
D|---------------------------------|
A|-3-------1-------0---------------|
E|---------------------3---2---1---|

[CHORUS
]
G|---------------------------------|---------------------------------|
D|-3---1---3-------3---1---3-------|-------------------------1---3---|
A|-----------------------------5---|---------5-------5---------------|
E|---------------------------------|---------------------------------|

G|---------------------------------|---------------------------------|
D|-----1---3-------3---1---3-------|-------------------------1---3---|
A|-----------------------------5---|---------5-------5---------------|
E|---------------------------------|---------------------------------|

G|---------------------------------|---------------------------------|
D|-----1---3-------3---1---3---4---|-5---------------5-------6-------|
A|---------------------------------|---------------------5-----------|
E|---------------------------------|---------------------------------|

[VERSE
]
G|---------------------------------|---------------------------------|
D|-7---7---7---7\----------7-------|-3-------3-------3-------5-/-7---|
A|-----------------------------7---|---------------------X-----------|
E|---------------------------------|---------------------------------|

G|---------------------------------|---------------------------------|
D|-7-------7\----------7---7-------|-3-------3-----------5---5-------|
A|-----------------------------7---|-------------5---------------3---|
E|---------------------------------|---------------------------------|

G|---------------------------------|---------------------------------|
D|-7---7---7\----------7---7-------|-5-----------3-------2-----------|
A|-----------------------------5---|-----5-----------------------5---|
E|---------------------------------|---------------------------------|

G|---------------------------------|---------------------------------|
D|---------------------------------|-5-------3-------2---------------|
A|-3-------1-------0---------------|-----5---------------5-----------|
E|---------------------3-------3---|---------------------------------|

G|---------------------------------|
D|---------------------------------|
A|-3-------1-------0---------------|
E|---------------------3---2---1---|

[CHORUS
]
G|---------------------------------|---------------------------------|
D|-3---1---3-------3---1---3-------|-------------------------1---3---|
A|-----------------------------5---|---------5-------5---------------|
E|---------------------------------|---------------------------------|

G|---------------------------------|---------------------------------|
D|-----1---3-------3---1---3-------|-------------------------1---3---|
A|-----------------------------5---|---------5-------5---------------|
E|---------------------------------|---------------------------------|

G|---------------------------------|---------------------------------|
D|-----1---3-------3---1---3---4---|-5-------------------------------|
A|---------------------------------|---------------------------------|
E|---------------------------------|-----------------3-------4-------|

[SOLO
]
G|---------------------------------|---------------------------------|
D|---------------------------------|---------------------------------|
A|---------------------------------|---------------------------------|
E|-5---5---5-----------5-------0---|-5---5---5---0---5---5---5---0---|

G|---------------------------------|---------------------------------|
D|---------------------------------|---------------------------------|
A|---------------------------------|---------------------------------|
E|-5-------5-----------5-----------|-5---0---5-------0---3-------5---|

G|---------------------------------|---------------------------------|
D|---------------------------------|---------------------------------|
A|---------------------------------|---------------------------------|
E|-----0---5-------0---3-------5---|-----0---5---0---5---0---5---0---|

G|---------------------------------|---------------------------------|
D|---------------------------------|---------------------------------|
A|---------------------------------|---------------------------------|
E|-5---0---5-------0---3-------5---|-5---0---5---0---5---0---5---0---|

G|---------------------------------|---------------------------------|
D|---------------------------------|---------------------------------|
A|---------------------------------|---------------------------------|
E|-1-------1-------1-------1-------|-3-------------------------------|

[VERSE
]
G|---------------------------------|---------------------------------|
D|---------------------------------|-3-------3-------3-------5-/-7---|
A|-----------------------------7---|---------------------------------|
E|-5---5---5---5---5---5-----------|---------------------------------|

G|---------------------------------|---------------------------------|
D|-7---7---7\----------------------|-3---3---3-------3-------3---5---|
A|-----------------------------7---|---------------------5-----------|
E|---------------------------------|---------------------------------|

G|---------------------------------|---------------------------------|
D|-7---7---7\----------7---7-------|-5-----------3-------2-----------|
A|-----------------------------5---|-----5-----------------------5---|
E|---------------------------------|---------------------------------|

G|---------------------------------|---------------------------------|
D|---------------------------------|-5-----------3-------2-----------|
A|-3-----------1-------0-----------|-----X-----------------------5---|
E|-------------------------3-------|---------------------------------|

G|---------------------------------|
D|---------------------------------|
A|-3-----------------------2---5---|
E|-----------------3---5-----------|

[CHORUS
]
G|---------------------------------|---------------------------------|
D|-3---1---3-------3---1---3-------|-------------------------1---3---|
A|-----------------------------5---|---------5-------5---------------|
E|---------------------------------|---------------------------------|

G|---------------------------------|---------------------------------|
D|-----1---3-------3---1---3-------|-------------------------1---3---|
A|-----------------------------5---|---------5---5---5---5-----------|
E|---------------------------------|---------------------------------|

G|---------------------------------|---------------------------------|
D|-----1---3-------3---1---3---4---|-5-------------------------------|
A|---------------------------------|---------------------------------|
E|---------------------------------|---------------------------------|

[OUTRO
]
  Contrabass arr. for bass
G|---------5---------------5-------|---------5---------------5-------|
D|-3---------------3---------------|-3---------------3---------------|
A|---------------------------------|---------------------------------|
E|---------------------------------|---------------------------------|

G|---------2---------------2-------|---------2---------------2-------|
D|-0---------------0---------------|-0---------------0---------------|
A|---------------------------------|---------------------------------|
E|---------------------------------|---------------------------------|
                                                  REPEAT AND FADE OUT

4. Ob-La-Di, Ob-La-Da (Lennon/McCartney)
[INTRO
]
                                    00:00
G|---------------------------------|---------------------------------|
D|---------------------------------|---------------------------------|
A|---------------------------------|---------------------------------|
E|---------------------------------|---------------------------------|

G|--------/7---10---------/7---10--|--------/7---10---------/7---10--|
D|-8---------------8---------------|-8---------------8---------------|
A|---------------------------------|---------------------------------|
E|---------------------------------|---------------------------------|

G|---------------------------------|---------------------------------|
D|-------------3---------------3---|-------------3---------------3---|
A|-1-----3-5-------1-----3-5-------|-1-----3-5-------1-----3-5-------|
E|---------------------------------|---------------------------------|

[VERSE
]
[00:10
]
G|---------------------------------|---------------------------------|
D|-------------3---------------3---|---------------------------------|
A|-1-----3-5-------1-------5-------|-------------3---------------3---|
E|---------------------------------|-1-----3-5-------1-----3-5-------|

G|---------------------------------|---------------------------------|
D|---------------------------------|-------------3---------------3---|
A|-------------3---------------3---|-1-------5-------1-----3-5-------|
E|-1-----3-5-------1-----3-5-------|---------------------------------|

G|---------------------------------|-------------3---------------3---|
D|-------------3---------------3---|-1-------5-------1-------5-------|
A|-1-----3-5-------1-------5-------|---------------------------------|
E|---------------------------------|---------------------------------|

G|---------------------------------|---------------------------------|
D|-------------3-------------------|-------------3---------------3---|
A|-1-----3-5-------------------3---|-1-------5-------1-------5-------|
E|-----------------1-------5-------|---------------------------------|

[CHORUS
]
[00:27
]
G|---------------------------------|---------------------------------|
D|-------------3---------------3---|-3-----------3---5---------------|
A|-1-------5-------1-----3-5-------|-------3-5-------------3-5---3---|
E|---------------------------------|---------------------------------|

G|---------------------------------|---------------------------------|
D|-------------3-------------------|-------------3---------------3---|
A|-1-------5-------------------3---|-1-----3-5-------1-----3-5-------|
E|-----------------1-------5-------|---------------------------------|

G|---------------------------------|---------------------------------|
D|-------------3---------------3---|-3-----------3---5---------------|
A|-1-------5-------1-----3-5-------|-------3-5--------------/5---3---|
E|---------------------------------|---------------------------------|

G|---------------------------------|---------------------------------|
D|-------------3-------------------|-------------3---------------3---|
A|-1-------5-------------------3---|-1-------5-------1-----3-5-------|
E|-----------------1-------5-------|---------------------------------|

[VERSE
]
[00:45
]
G|---------------------------------|---------------------------------|
D|-------------3---------------3---|---------------------------------|
A|-1-------5-------1-------5-------|-------------3---------------3---|
E|---------------------------------|-1-----3-5-------1-----3-5-------|

G|---------------------------------|---------------------------------|
D|---------------------------------|-------------3---------------3---|
A|-------------3---------------3---|-1-------5-------1-------5-------|
E|-1-------5-------1-------5-------|---------------------------------|

G|---------------------------------|-------------3---------------3---|
D|-------------3---------------3---|-1-------5-------1-----3-5-------|
A|-1-------5-------1-------5-------|---------------------------------|
E|---------------------------------|---------------------------------|

G|---------------------------------|---------------------------------|
D|-------------3-------------------|-------------3---------------3---|
A|-1-----3-5-------------------3---|-1-----3-5-------1-----3-5-------|
E|-----------------1-------5-------|---------------------------------|


[CHORUS
]
[01:01
]
G|---------------------------------|---------------------------------|
D|-------------3---------------3---|-3-----------3---5---------------|
A|-1-------5-------1-----3-5-------|-------3-5-------------3-5---3---|
E|---------------------------------|---------------------------------|

G|---------------------------------|---------------------------------|
D|-------------3-------------------|-------------3---------------3---|
A|-1-------5-------------------3---|-1-----3-5-------1-----3-5-------|
E|-----------------1-----3-5-------|---------------------------------|

G|---------------------------------|---------------------------------|
D|-------------3---------------3---|-3-----------3---5---------------|
A|-1-----3-5-------1-----3-5-------|-------3-5---------------5---3---|
E|---------------------------------|---------------------------------|

G|---------------------------------|---------------------------------|
D|-------------3-------------------|---------0---3---------------0---|
A|-1-------5-------------------3---|-1---1-----------1----3--4-------|
E|-----------------1-----3-5-------|---------------------------------|

[BRIDGE
]
[01:18
]
G|---------------------------------|---------------------------------|
D|-1-------1-------1-------1-------|-1-------1-------1-------1---3---|
A|-----1-------1-------1-------1---|-------1-----1-------1-----------|
E|---------------------------------|---------------------------------|

G|---------------------------------|---------------------------------|
D|-----------------------------3---|-------------3---------------0---|
A|-1-------1-------1-------1-------|-1-------1-------1---3---4-------|
E|-----1-------1---------1---------|-------1-------------------------|

G|---------------------------------|---------------------------------|
D|-1-------1-------1-------1-------|-1-------1-------1---x---2---3---|
A|-----1-------1---------------1---|-------------1-------------------|
E|---------------------------------|---------------------------------|

G|---------------------------------|---------------------------------|
D|-----3-------3-------3-------3---|-----3-------3-------------------|
A|---------------------------------|---------------------6---5---3---|
E|---------------------------------|---------------------------------|

[VERSE
]
[01:35
]
G|---------------------------------|---------------------------------|
D|-------------3---------------3---|---------------------------------|
A|-1-------5-------1-----3-5-------|-------------3---------------3---|
E|---------------------------------|-1-----3-5-------1-----3-5-------|

G|---------------------------------|---------------------------------|
D|---------------------------------|-------------3---------------3---|
A|-------------3---------------3---|-1-------5-------1-----3-5-------|
E|-1-------5-------1-------5-------|---------------------------------|

G|---------------------------------|-------------3---------------3---|
D|-------------3---------------3---|-1-------5-------1-------5-------|
A|-1-----3-5-------1-------5-------|---------------------------------|
E|---------------------------------|---------------------------------|

G|---------------------------------|---------------------------------|
D|-------------3-------------------|-------------3---------------3---|
A|-1-------5-------------------3---|-1-----3-5-------1-------5-------|
E|-----------------1-------5-------|---------------------------------|

[CHORUS
]
[01:52
]
G|---------------------------------|---------------------------------|
D|-------------3---------------3---|-3-----------3---5---------------|
A|-1-------5-------1-------5-------|-------3-5---------------5---3---|
E|---------------------------------|---------------------------------|

G|---------------------------------|---------------------------------|
D|-------------3-------------------|-------------3---------------3---|
A|-1-------5-------------------3---|-1-----3-5-------1-------5-------|
E|-----------------1-----3-5-------|---------------------------------|

G|---------------------------------|---------------------------------|
D|-------------3---------------3---|-3-----------3---5---------------|
A|-1-------5-------1-------5-------|-------3-5---------------5---3---|
E|---------------------------------|---------------------------------|

G|---------------------------------|---------------------------------|
D|-------------3-------------------|-------------3---------------0---|
A|-1-------5-------------------3---|-1-------5-------1---3---4-------|
E|-----------------1-------5-------|---------------------------------|

[BRIDGE
]
[02:09
]
G|---------------------------------|---------------------------------|
D|-1-------1-------1-------1-------|-1-------1-------1-------1---3---|
A|-----1-------1-------1-------1---|-------1-----1-------1-----------|
E|---------------------------------|---------------------------------|

G|---------------------------------|---------------------------------|
D|-----------------------------3---|-------------3---------------0---|
A|-1-------1-------1-------1-------|-1-------1-------1---3---4-------|
E|-----1-------1---------1---------|-------1-------------------------|

G|---------------------------------|---------------------------------|
D|-1-------1-------1-------1-------|-1-------1-------1-------2---3---|
A|-----1-------1-------1-------1---|-----1-------1-------------------|
E|---------------------------------|---------------------------------|

G|---------------------------------|---------------------------------|
D|-----3-------3-------3-------3---|-----3-------3-------------------|
A|---------------------------------|---------------------6---5---3---|
E|---------------------------------|---------------------------------|

[VERSE
]
[02:26
]
G|---------------------------------|---------------------------------|
D|-------------3---------------3---|---------------------------------|
A|-1-------5-------1-------5-------|-------------3---------------3---|
E|---------------------------------|-1-----3-5-------1-------5-------|

G|---------------------------------|---------------------------------|
D|---------------------------------|-------------3---------------3---|
A|-------------3---------------3---|-1-----3-5-------1-------5-------|
E|-1-----3-5-------1-----3-5-------|---------------------------------|

G|---------------------------------|-------------3---------------3---|
D|-------------3---------------3---|-1-------5-------1-------5-------|
A|-1-----3-5-------1-------5-------|---------------------------------|
E|---------------------------------|---------------------------------|

G|---------------------------------|---------------------------------|
D|-------------3-------------------|-------------3---------------3---|
A|-1-----3-5-------------------3---|-1-------5-------1-------5-------|
E|-----------------1-----3-5-------|---------------------------------|

[CHORUS
]
[02:43
]
G|---------------------------------|---------------------------------|
D|-------------3---------------3---|-3-----------3---5---------------|
A|-1-----3-5-------1-----3-5-------|-------3-5---------------5---3---|
E|---------------------------------|---------------------------------|


G|---------------------------------|---------------------------------|
D|-------------3-------------------|-------------3---------------3---|
A|-1-----3-5-------------------3---|-1-------5-------1-------5-------|
E|-----------------1-------5-------|---------------------------------|


G|---------------------------------|---------------------------------|
D|-------------3---------------3---|-3-----------3---5---------------|
A|-1-----3-5-------1-------5-------|-------3-5-------------3-5---3---|
E|---------------------------------|---------------------------------|


G|---------------------------------|---------------------------------|
D|-------------3-------------------|-5---------------5---------------|
A|-1-------5-------------------3---|---------5---------------5-------|
E|-----------------1-------5-------|---------------------------------|


G|---------------------------------|---------------------------------|
D|-5---------------5---------------|-3---1---0-----------------------|
A|---------5---------------5-------|-------------3---1---------------|
E|---------------------------------|---------------------------------|

5. Wild Honey Pie (Lennon/McCartney)
Best I could find here was chords instead of bass tab, I'm sure you'll be able to jam along though.
Intro:  Gb7    E7    Eb7    D7    Db7
Gb7
Honey Pie.  Honey Pie.
Break:  Gb7    E7    Eb7    D7    Db7
Gb7
Honey Pie.  Honey Pie.
Break:  Gb7    E7    Eb7    D7    Db7
Gb7         E7
Honey Pie.  Honey Pie.
Gb7         E7
Honey Pie.  Honey Pie.
  Gb7 nc
I love you.

6. The Continuing Story of Bungalow Bill (Lennon/McCartney)
[0:00 Intro Chorus
]
G|---|--------------------------|---------------------------|--------------------|
D|---|--10-----10\---5-----5/---|--10-----10-----3-----3/---|--10-----10\---3----|
A|---|--------------------------|---------------------------|--------------------|
E|---|--------------------------|---------------------------|--------------------|

G|------------|--------------|------------------------|--------------------------|
D|------3--4--|--5-----5--6--|--7-----7\---2-----2/---|--7-----7\---0-----0------|
A|------------|--------------|------------------------|--------------------------|
E|------------|--------------|------------------------|--------------------------|

G|-------|-------------------------|---------------------------------------------|
D|---/---|--7-----7\---0-----0--1--|--2-----0------------------------------------|
A|-------|-------------------------|--------------3-----2------------------------|
E|-------|-------------------------|---------------------------------------------|

[0:15 First Verse
]
G|---|--------------------------|--------------------------|---------------------|
D|---|--------------------------|--3-----------3-----5-----|--7------------------|
A|---|--0--------0--3--------3--|-----------3--------------|-----------5--3------|
E|---|--------------------------|--------------------------|---------------------|

G|------------|--------------------------|--------------------------|------------|
D|------------|--3-----------3-----5-----|--2--------2--5--------5--|------------|
A|---------3--|-----------3--------------|--------------------------|--0--2------|
E|------------|--------------------------|--------------------------|------------|

                    [0:37 Chorus
]
G|------------------|--------------------------|---------------------------|-----|
D|------2--3--------|--10-----10\---5-----5/---|--10-----10-----3-----3/---|-----|
A|---3--------------|--------------------------|---------------------------|-----|
E|------------------|--------------------------|---------------------------|-----|

G|----------------------------|--------------|------------------------|----------|
D|---10-----10\---3-----3--4--|--5-----5--6--|--7-----7\---2-----2/---|--7-------|
A|----------------------------|--------------|------------------------|----------|
E|----------------------------|--------------|------------------------|----------|

G|-------------------|-------------------------|---------------------------------|
D|---7\---0-----0/---|--7-----7\---0-----0--1--|--2-----0------------------------|
A|-------------------|-------------------------|--------------3-----2------------|
E|-------------------|-------------------------|---------------------------------|

[0:53 Second Verse
]
G|---|--------------------------|--------------------------|---------------------|
D|---|--------------------------|--3-----------3-----5-----|--7------------------|
A|---|--0--------0--3--------3--|-----------3--------------|-----------5--3------|
E|---|--------------------------|--------------------------|---------------------|

G|------------|--------------------------|--------------------------|------------|
D|------------|--3-----------3-----5-----|--2--------2--5--------5--|------------|
A|---------3--|-----------3--------------|--------------------------|--0--2------|
E|------------|--------------------------|--------------------------|------------|

[1:15 Chorus
]
G|------------------|--------------------------|---------------------------|-----|
D|------2--3--------|--10-----10\---5-----5/---|--10-----10-----3-----3/---|-----|
A|---3--------------|--------------------------|---------------------------|-----|
E|------------------|--------------------------|---------------------------|-----|

G|----------------------------|--------------|------------------------|----------|
D|---10-----10\---3-----3--4--|--5-----5--6--|--7-----7\---2-----2/---|--7-------|
A|----------------------------|--------------|------------------------|----------|
E|----------------------------|--------------|------------------------|----------|

G|-------------------|-------------------------|---------------------------------|
D|---7\---0-----0/---|--7-----7\---0-----0--1--|--2-----0------------------------|
A|-------------------|-------------------------|--------------3-----2------------|
E|-------------------|-------------------------|---------------------------------|

[1:31 Third Verse
]
G|---|--------------------------|--------------------------|---------------------|
D|---|--------------------------|--3-----------3-----5-----|--7------------------|
A|---|--0--------0--3--------3--|-----------3--------------|-----------5--3------|
E|---|--------------------------|--------------------------|---------------------|

G|------------|--------------------------|--------------------------|------------|
D|------------|--3-----------3-----5-----|--2--------2--5--------5--|------------|
A|---------3--|-----------3--------------|--------------------------|--0--2------|
E|------------|--------------------------|--------------------------|------------|

                    [1:53 Chorus Repeat and End
]
G|------------------||---------------------------|-------------------------------|
D|------2--3--------||*--10-----10\---5-----5/---|--10-----10-----3-----3/-------|
A|---3--------------||*--------------------------|-------------------------------|
E|------------------||---------------------------|-------------------------------|

G|---|---------------------------|--------------|------------------------|-------|
D|---|--10-----10\---3-----3--4--|--5-----5--6--|--7-----7\---2-----2/---|--7----|
A|---|---------------------------|--------------|------------------------|-------|
E|---|---------------------------|--------------|------------------------|-------|

G|----------------------|-------------------------|--------------||--------------|
D|------7\---0-----0/---|--7-----7\---0-----0--1--|--2-----2/---*||--------------|
A|----------------------|-------------------------|-------------*||--------------|
E|----------------------|-------------------------|--------------||--------------|

7. While My Guitar Gently Weeps (George Harrison)
[Intro]
  t=114
G|---------------------------------|---------------------------------|
D|-7-------------------------------|-5-------------------------------|
A|---------------------------------|---------------------------------|
E|---------------------------------|---------------------------------|

G|---------------------------------|---------------------------------|
D|-4-------------------------------|-3-------------------------------|
A|---------------------------------|---------------------------------|
E|---------------------------------|---------------------------------|

G|---------------------------------|---------------------------------|
D|-7-------------------------------|-5-------------------------------|
A|---------------------------------|---------------------------------|
E|---------------------------------|---------------------------------|

G|---------------------------------|---------------------------------|
D|---------------------------------|---------------------------------|
A|-5-------------------------------|-7-------7-------7---7---7-------|
E|---------------------------------|---------------------------------|
                                                             I   look

[Verse]
G|---------------------------------|---------------------------------|
D|-7-------------------------------|-5-------------------------------|
A|---------------------------------|---------------------------------|
E|---------------------------------|---------------------------------|
              at      you     all                   see the     love

G|---------------------------------|---------------------------------|
D|-4-------------------------------|-3-------------------------------|
A|---------------------------------|---------------------------------|
E|---------------------------------|---------------------------------|
               there   that’s  sleeping

G|---------------------------------|---------------------------------|
D|-7-------------------------------|-5-------------------------------|
A|---------------------------------|---------------------------------|
E|---------------------------------|---------------------------------|
           while   my      guitar                gently          weeps

G|---------------------------------|---------------------------------|
D|---------------------------------|---------------------------------|
A|-5-------------------------------|-7-------------------------------|
E|---------------------------------|---------------------------------|
                                                             I   look

[Verse]
G|---------------------------------|---------------------------------|
D|-7-------------------------------|-5-------------------------------|
A|---------------------------------|---------------------------------|
E|---------------------------------|---------------------------------|
               at      the     floor             and     I       see

G|---------------------------------|---------------------------------|
D|-4-------------------------------|-3-------------------------------|
A|---------------------------------|---------------------------------|
E|---------------------------------|---------------------------------|
               it      needs   sweeping

G|-9---9---9-----------------------|-7---7---7-----------------------|
D|-7---7---7-----------------------|-5---5---5-----------------------|
A|---------------------------------|---------------------------------|
E|---------------------------------|---------------------------------|
           still   my      guitar                gently          weeps

G|---------------------------------|---------------------------------|
D|---------------------------------|-----------------6---------------|
A|-3-------3-------3---2---3---5---|-7-------7---9-----------7-------|
E|---------------------------------|---------------------------------|

[Bridge]
G|---------------------------------|---------------------------------|
D|-7-------7\----------------------|----------------/6-------9-------|
A|-----------------2-h-4---7\------|-4-----------7-------------------|
E|---------------------------------|---------------------------------|
               I   don’t   know      why

G|---------------------------------|---------------------------------|
D|-7-------7-----------------------|----------------/6-------9\------|
A|-----------------9\------2-------|-4-----------7-------------------|
E|---------------------------------|---------------------------------|
               nobody          told      you

G|---------------------------------|---------------------------------|
D|-----------------4\--------------|---------------------------------|
A|-2-------2-----------------------|-2-----------4---5-------6-------|
E|-------------------------2-------|---------------------------------|
               how      to   unfold                      your

G|---------------------------------|---------------------------------|
D|---------------------------------|-6---6-------6---7-------9\------|
A|-7---7-------7---9---9-------9---|---------------------------------|
E|---------------------------------|---------------------------------|
   love

G|---------------------------------|---------------------------------|
D|-7-------7\----------------------|----------------/6-------9\------|
A|-----------------2-/-4---7\------|-4-----------7-------------------|
E|---------------------------------|---------------------------------|
               I   don’t   know      how

G|---------------------------------|---------------------------------|
D|-7-------7-----------------------|----------------/6-------9-------|
A|-----------------9\------2-------|-4-----------7-------------------|
E|---------------------------------|---------------------------------|
               someone       controlled      you

G|---------------------------------|---------------------------------|
D|-----------------4\--------------|---------------------------------|
A|-2-------2-----------------------|-2-----------4---5-------6-------|
E|-------------------------2-------|---------------------------------|
               they    bought  and   sold

G|---------------------------------|---------------------------------|
D|---------------------------------|-6---6-------6---7-------9\------|
A|-7---7-------7---9---9-------9---|---------------------------------|
E|---------------------------------|---------------------------------|
   you                                                   I       look

[Verse]
G|---------------------------------|-7---7---7-----------------------|
D|-7-------------------------------|-5---5---5-----------------------|
A|---------------------------------|---------------------------------|
E|---------------------------------|---------------------------------|
               at      the     world                 and I       notice

G|-7---7---7-----------------------|-5---5---5-----------------------|
D|-4---4---4-----------------------|-3---3---3---------------5-h-7---|
A|---------------------------------|---------------------------------|
E|---------------------------------|---------------------------------|
                       it’s    turning

G|---------------------------------|---------------------------------|
D|-7---7---7-----------------------|-5-------5-----------------------|
A|---------------------------------|---------------------------------|
E|---------------------------------|---------------------------------|
           while   my      guitar                gently          weeps

G|---------------------------------|---------------------------------|
D|---------------------------------|-------------------------6-------|
A|-5---5---5-----------------------|-7---7-------7---9-----------7---|
E|---------------------------------|---------------------------------|
                                                            With ev’ry

[Verse]
G|-9---X---9-----------------------|-7---X---7-----------------------|
D|-7---X---7-----------------------|-5---X---5-----------------------|
A|---------------------------------|---------------------------------|
E|---------------------------------|---------------------------------|
                       mistake                   we      must    surely

G|-7-------7-----------------------|---------------------------------|
D|-4-------4-----------------------|-4-------3-----------------------|
A|---------------------------------|---------------------------------|
E|---------------------------------|---------------------------------|
                       be      learning

G|-9---9---9-----------------------|---------------------------------|
D|-7---7---7-----------------------|-5-------5-----------------------|
A|---------------------------------|-------------------------7---5---|
E|---------------------------------|---------------------------------|
           still   my      guitar                gently          weeps

G|---------------------------------|---------------------------------|
D|---------------------------------|-----------------6---------------|
A|-3-------3---2---3-------5-/-7---|-7-------7---9-----------7-------|
E|---------------------------------|---------------------------------|
                                     well...

[Guitar solo]
G|-9---9---9-----------9---9-------|-7---7---7-----------------------|
D|-7---7---7-----------7---7-------|-5---5---5-----------------------|
A|---------------------------------|---------------------------------|
E|---------------------------------|---------------------------------|

G|-7---7---7-----------------------|-5---5-------5---5-/-7---7-/-9---|
D|-4---4---4-----------------------|-3---3-------3---3-/-5---5-/-7---|
A|---------------------------------|---------------------------------|
E|---------------------------------|---------------------------------|

G|-9---9---9-----------------------|-7---7---7-----------------------|
D|-7---7---7-----------------------|-5---5---5-----------------------|
A|---------------------------------|---------------------------------|
E|---------------------------------|---------------------------------|

G|---------------------------------|----------------/9\--------------|
D|-7-------7-------7---7---7-------|---------------------------------|
A|-5-------5-------5---5---5-------|-7---7---7---7-----------7---7---|
E|---------------------------------|---------------------------------|

G|---------------------------------|---------------------------------|
D|-7---7---7\----------------------|-5---5---5\----------------------|
A|---------------------------------|---------------------------------|
E|---------------------------------|---------------------------------|

G|---------------------------------|---------------------------------|
D|-4---4---4\----------------------|-3---3---3-------3-/-5---5-/-7---|
A|---------------------------------|---------------------------------|
E|---------------------------------|---------------------------------|

G|---------------------------------|---------------------------------|
D|-7---7---7\----------------------|-5---5---5-------3---2-----------|
A|---------------------------------|-------------------------5-------|
E|---------------------------------|---------------------------------|

G|---------------------------------|---------------------------------|
D|---------------------------------|-----------------6---------------|
A|-3---3---3---2---3-/-5---5-/-7---|-----7---7---9-----------7-------|
E|---------------------------------|---------------------------------|

[Bridge]
G|---------------------------------|---------------------------------|
D|-7-------7\----------------------|----------------/6-------9-------|
A|-----------------2-h-4---7\------|-4-----------7-------------------|
E|---------------------------------|---------------------------------|
               I   don’t   know      how

G|---------------------------------|---------------------------------|
D|-7-------7-----------------------|----------------/6-------9\------|
A|-----------------9\------2-------|-4-----------7-------------------|
E|---------------------------------|---------------------------------|
               you    were diverted

G|---------------------------------|---------------------------------|
D|-----------------4\--------------|---------------------------------|
A|-2-------2-----------------------|-2-----------4---5-------6-------|
E|-------------------------2-------|---------------------------------|
               you      were perverted

G|---------------------------------|---------------------------------|
D|---------------------------------|-6---6-------6---7-------9\------|
A|-7---7-------7---9---9-------9---|---------------------------------|
E|---------------------------------|---------------------------------|
   too

G|---------------------------------|---------------------------------|
D|-7-------7\----------------------|----------------/6-------9\------|
A|-----------------2-/-4---7\------|-4-----------7-------------------|
E|---------------------------------|---------------------------------|
               I   don’t   know      how

G|---------------------------------|---------------------------------|
D|-7-------7-----------------------|----------------/6-------9-------|
A|-----------------9\------2-------|-4-----------7-------------------|
E|---------------------------------|---------------------------------|
               you      were inverted

G|---------------------------------|---------------------------------|
D|-----------------4\--------------|---------------------------------|
A|-2-------2-----------------------|-2-----------4---5-------6-------|
E|-------------------------2-------|---------------------------------|
               no      one     alerted                       you

G|---------------------------------|---------------------------------|
D|---------------------------------|-6---6-------6---7-------9\------|
A|-7---7-------7---9---9-------9---|---------------------------------|
E|---------------------------------|---------------------------------|
                                                         I       look

[Verse]
G|-9---9---9-----------------------|-7---7---7-----------------------|
D|-7---7---7-----------------------|-5---5---5-----------------------|
A|---------------------------------|---------------------------------|
E|---------------------------------|---------------------------------|
               at      you     all               see     the     love

G|-7---7---7-----------------------|-5---5---5-----------------------|
D|-4---4---4-----------------------|-3---3---3-----------3---5-------|
A|---------------------------------|---------------------------------|
E|---------------------------------|---------------------------------|
               there   that’s  sleeping

G|---------------------------------|---------------------------------|
D|-7---7---7-----------------------|-5-------5-----------------------|
A|---------------------------------|---------------------------------|
E|---------------------------------|---------------------------------|
           while   my      guitar                gently          weeps

G|---------------------------------|-------------9---9---9-----------|
D|---------------------------------|---------------------------------|
A|-5-------5-------5---5---5-------|-7---7---7---------------7---7---|
E|---------------------------------|---------------------------------|

[Verse]
G|-9---X---9-----------------------|-7---X---7-----------------------|
D|-7---X---7-----------------------|-5---X---5-----------------------|
A|---------------------------------|---------------------------------|
E|---------------------------------|---------------------------------|
          Look at      you     all

G|-7---7---7-----------------------|-5---5---5-----------7---7---9---|
D|-4---4---4-----------------------|-3---3---3-----------5---5---7---|
A|---------------------------------|---------------------------------|
E|---------------------------------|---------------------------------|

G|-9---9---9-----------------------|-7---7---7-----------------------|
D|-7---7---7-----------------------|-5---5---5-----------------------|
A|---------------------------------|-------------------------7---5---|
E|---------------------------------|---------------------------------|
           still   my      guitar                gently          weeps

G|---------------------------------|---------------------------------|
D|---------------------------------|-----------------6-----------6---|
A|-3---3---3-------3---2---3-/-5---|-7---7---7---9-------7---9-------|
E|---------------------------------|---------------------------------|

[Guitar solo]
G|-------------9---\---------------|-------------9---\---------------|
D|-7---7---7-----------------------|-5---5---5-----------------------|
A|---------------------------------|---------------------------------|
E|---------------------------------|---------------------------------|

G|-------------7---\---------------|-------------5---\---------------|
D|-4---4---4---------------4-------|-3---3---3-----------------------|
A|---------------------------------|---------------------------------|
E|---------------------------------|---------------------------------|

G|-9---9---9---9---\---------------|-7---7---7---7---\---------------|
D|-7---7---7-----------------------|-5---5---5-----------------------|
A|---------------------------------|---------------------------------|
E|---------------------------------|---------------------------------|

G|---------------------------------|-----------------9---9---9---9---|
D|-7-------7-------7-------7-------|---------------------------------|
A|-5-------5-------5-------5-------|-7-------------------------------|
E|---------------------------------|-----0---0---0-------------------|

G|-------------9---\---------------|-------------9---\---------------|
D|-7---7---7-----------------------|-5---5---5-----------------------|
A|---------------------------------|---------------------------------|
E|---------------------------------|---------------------------------|

G|-------------7---\---------------|-------------7---\---------------|
D|-4---4---4-------------------4---|-3---3---3-----------------------|
A|---------------------------------|---------------------------------|
E|---------------------------------|---------------------------------|

G|-9---9---9---9-------------------|-7---7---7---7-------------------|
D|-7---7---7---7-------------------|-5---5---5---5-------------------|
A|---------------------------------|---------------------------------|
E|---------------------------------|---------------------------------|

G|---------------------------------|---------------------------------|
D|---------------------------------|-----------------6-----------6---|
A|-3---3---3---2---3---5-------7---|-----7---7---9-------7---9-------|
E|---------------------------------|---------------------------------|

G|-------------9---\---------------|-------------9---\---------------|
D|-7---7---7-----------------------|-5---5---5-----------------------|
A|---------------------------------|---------------------------------|
E|---------------------------------|---------------------------------|

G|-------------7---\---------------|-------------7-------7---5-------|
D|-4---4---4-------------------4---|-3---3---3-----------------------|
A|---------------------------------|---------------------------------|
E|---------------------------------|---------------------------------|

G|-------------9---\---------------|-------------7---\---------------|
D|/7---7---7-----------------------|-5---5---5-----------------------|
A|---------------------------------|---------------------------------|
E|---------------------------------|---------------------------------|

G|---------------------------------|---------------------------------|
D|---------------------------------|-------------------------6-------|
A|-5---5---5---5-------5---5-/-7---|-7---7---7---9-------9-----------|
E|---------------------------------|---------------------------------|

G|-------------9---\---------------|-------------9---\---------------|
D|-7---7---7-----------------------|-5---5---5-----------------------|
A|---------------------------------|---------------------------------|
E|---------------------------------|---------------------------------|

G|-----7-----------7---------------|----/7------/7------/7---5-------|
D|-4-----------4-----------4-------|-3-------------------------------|
A|---------------------------------|---------------------------------|
E|---------------------------------|---------------------------------|

G|---------------------------------|---------------------------------|
D|-7---7---7---7-------------------|-5---5---5---5-------------------|
A|---------------------------------|--------------------/7---5-------|
E|---------------------------------|---------------------------------|

G|---------------------------------|---------------------------------|
D|---------------------------------|---------------------6-----------|
A|-3---3---3---3-------5-------5---|-7---7---7---7-----------7-------|
E|---------------------------------|---------------------------------|

(fade out)
8. Happiness Is a Warm Gun (Lennon/McCartney)
 4/4
G|---------------------------------|-----------------9-9-9-9-9-9-9---|
D|---------------------------------|---------------------------------|
A|---------------------------------|---------------------------------|
E|---------------------------------|---------------------------------|

                                    2/4
G|---------------------------------|-----------------|
D|---------------------------------|-----------------|
A|-5---------------5---------------|-5---------------|
E|---------5---------------5-------|---------5-------|

  4/4
G|---------------------------------|---------------------------------|
D|-7---------------7---------------|---------------------------------|
A|---------7---------------7-------|-5---------------5---------------|
E|---------------------------------|---------5---------------5-------|

G|---------------------------------|---------------------------------|
D|-7---------------7---------------|---------------------------------|
A|---------7-------------------3---|-5---------------5---------------|
E|-------------------------5-5-----|---------5---------------5-------|

                                    5/4
G|---------------------------------|-----------------------------------------|
D|-7---------------7---------------|-----------------------------------------|
A|---------7---------------7-------|-5---------------5---------------5-------|
E|---------------------------------|---------5---------------5---------------|

  4/4                               9/8
G|-----------------9-9-9-9-7\5-----|-------------------------------------|
D|-7---------------------------7-5-|-7---------------5---6---7-----------|
A|---------7-----------------------|-------------7-----------------------|
E|---------------------------------|-------------------------------------|

  12/8
G|-------------------------------------------------|
D|-------------7---------------5---6---7---8---9---|
A|-7-----------------------7-----------------------|
E|-------------------------------------------------|

G|-------------------------------------------------|
D|-10--------------9---8---7-----------------------|
A|-------------10----------------------7-----------|
E|-------------------------------------------------|

  9/8
G|-------------------------------------|
D|-7---------------5---6---7-----------|
A|-------------7-----------------------|
E|-------------------------------------|

  12/8
G|-------------------------------------------------|
D|-------------7---------------5---6---7---8---9---|
A|-7-----------------------7-----------------------|
E|-------------------------------------------------|

G|-------------------------------------------------|
D|-10--------------9---8---7-----------------------|
A|-------------10----------------------------------|
E|-------------------------------------------------|

  9/8
G|-------------------------------------|
D|-5-5-5-5---5-----2---5---7---5-------|
A|-------------3-------------------7---|
E|-------------------------------------|

  10/8
G|-----------------------------------------|
D|-------------------------5---3-----------|
A|-----------------2---5-----------5-------|
E|-5-5-5-5---5-3-----------------------3---|

  9/8
G|-------------------------------------|
D|-----------------2---5---7---5-------|
A|-------------3-------------------7---|
E|-3-3-3-3---3-------------------------|

  10/8
G|-----------------------------------------|
D|-------------------------5---3-----------|
A|-----------------2---5-----------5-------|
E|-5-5-5-5---5-3-----------------------3---|

  9/8
G|-------------------------------------|
D|-----------------2---5---7---5-------|
A|-------------3-------------------7---|
E|-3-3-3-3---3-------------------------|

  10/8
G|-----------------------------------------|
D|-------------------------5---3-----------|
A|-----------------2---5-----------5-------|
E|-5-5-5-5---5-3-----------------------3---|

  4/4
G|---------------------------------|---------------------------------|
D|---------------------------------|---------------------------------|
A|-3-----------2---0---------------|-------------------------0---2---|
E|-----------------------------3---|-1---------------3---------------|

G|---------------------------------|---------------------------------|
D|---------------------------------|---------------------------------|
A|-3-----------2---0---------------|-------------------------0---2---|
E|-----------------------------3---|-1---------------3---------------|

  12/8
G|-------------------------------------------------|
D|-------------------------------------------------|
A|-3-----------0-----------------------------------|
E|-------------------------1-----------3-----------|

G|-------------------------------------------------|
D|-------------------------------------------------|
A|-3-----------0-----------------------------------|
E|-------------------------1-----------3-----------|

G|-------------------------------------------------|
D|-------------------------------------------------|
A|-3-----------0-----------------------------------|
E|-------------------------1-----------3-----------|

  4/4
G|---------------------------------|---------------------------------|
D|---------------------------------|---------------------------------|
A|-3-----------2---0---------------|-------------------------0---2---|
E|-------------------------3-------|-1-----------1---3---------------|

G|---------------------------------|---------------------------------|
D|---------------------------------|---------------------------------|
A|-3-----------2---0---------------|-------------------------0---2---|
E|-------------------------3-------|-1-----------1---3---------------|

                                    2/4
G|---------------------------------|-----------------|
D|---------------------------------|-----------------|
A|-3-------------------------------|-----------------|
E|---------------------------------|-----------------|

  4/4
G|---------------------------------|---------------------------------|
D|---------------------------------|---------------------------------|
A|-3-----------2---0---------------|-------------------------0---2---|
E|-------------------------3-------|-1-----------1---3---------------|

G|---------------------------------|---------------------------------|
D|---------------------------------|---------------------------------|
A|-3-----------2---0---------------|-------------------------0---2---|
E|-------------------------3-------|-1-----------1---3---------------|

G|---------------------------------|
D|---------------------------------|
A|-3-------------------------------|
E|---------------------------------|

Side 2
9. Martha My Dear (Lennon/McCartney)
    Piano, Vocals, Strings  0:38
G|---|-----------------------|--------------------------|------------------------|
D|---|-----------------------|--------------------------|--5-----------5---------|
A|---|-----------------------|--5-----------5-----------|--------5---------------|
E|---|-----------------------|--------5-----------5-----|------------------------|

G|---------|--------------------------|--------------------------|---------------|
D|---------|--3-----------3-----------|--------------------------|---------------|
A|---5-----|--------3-----------3-----|--------------------3-----|--3------------|
E|---------|--------------------------|--1--------5--------------|--------3------|

G|------------------|--------------------------|-----------------|---------------|
D|------------------|--------------------------|-----------------|---------------|
A|------3-----------|--3-----------3-----------|--5--------------|---------------|
E|------------3-----|--------3-----------5-----|-----------------|--3------------|

        1:00
G|------|--------------------|--------------------------------------|------------|
D|------|-----------------3--|--5--5--5-----5--3--5--5-----5--3--5--|------------|
A|------|--5--5--5-----5-----|--------------------------------------|--5--5------|
E|------|--------------------|--------------------------------------|------------|

G|---------------|--------------------------------------|------------------------|
D|------------3--|--5--5--5-----5-----5--3-----2--2-----|------------------------|
A|---5-----5-----|-----------------5-----------------5--|--3--3--3-----3--2------|
E|---------------|--------------------------------------|------------------------|

G|--------------|-------------------------------------|--------------------------|
D|--------------|--8--8--8-----8--7--8--8-----8--7--8\|--------------------------|
A|---3--3--3--3/|-------------------------------------|--5-----------5-----------|
E|--------------|-------------------------------------|--------5-----------5-----|

                                                   1:20
G|------|--------------|-------------8-------------|--------------------|--------|
D|------|--------------|----------------8\---1-----|--1-----------1-----|--------|
A|------|--------------|---------------------------|--------1-----------|--1-----|
E|------|--3-----------|--(3)----------------------|--------------------|--------|

G|------------|--------------------------|-----------5/10~~~-----|-----10--------|
D|------------|--5-----3-----2--------2--|--3--5--7--------------|--8------8-----|
A|------5-----|-----------------3--5-----|-----------------------|---------------|
E|------------|--------------------------|-----------------------|---------------|

G|--------8-------|-----10----------8-------|-----10----------8-------|----------|
D|---8\6-----6--6/|--8------8--8\6-----6--6/|--8------8--8\6-----6--6/|--8-------|
A|----------------|-------------------------|-------------------------|----------|
E|----------------|-------------------------|-------------------------|----------|

           1:40
G|---------|--------------------------|--------------------------|---------------|
D|---------|--------------------------|--5-----------5-----------|--3------------|
A|---------|--5-----------5-----------|--------5-----------5-----|--------3------|
E|---------|--------5-----------5-----|--------------------------|---------------|

G|------------------|--------------------------|--------------------------|------|
D|------3-----------|--------------------------|--------------------------|------|
A|------------3-----|--------------------3-----|--3-----------3-----------|------|
E|------------------|--1--------5--------------|--------3-----------3-----|------|

G|---------------------------|--------------------------|--------------|---------|
D|---------------------------|--------------------------|--------------|---------|
A|---3-----------3-----------|--5-----------5-----------|--------------|---------|
E|---------3-----------5-----|--------5-----------5-----|--3-----------|--(3)----|

                      2:02
G|---------8--------8\|--------------------|--------------|----------------------|
D|------------8-------|--1-----------1-----|--------------|--5-----3-----2-------|
A|---------------6----|--------1-----------|--1-----5-----|-----------------3----|
E|--------------------|--------------------|--------------|----------------------|

G|---------|-----------5/10~~~-----|-----10----------8-------|-----10------------|
D|------2--|--3--5--7--------------|--8---------8\6--------6/|--8---------8------|
A|---5-----|-----------------------|-------------------------|-------------------|
E|---------|-----------------------|-------------------------|-------------------|

G|-------8-------|-----10----------8--------|--------------|--8-----7-----5------|
D|---\6--------6/|--8---------8\6--------6--|--8-----------|---------------------|
A|---------------|--------------------------|--------------|---------------------|
E|---------------|--------------------------|--------------|---------------------|

G|------------|-----------------||-----------------------------------------------|
D|------8-----|-----------------||-----------------------------------------------|
A|------------|--6--------------||-----------------------------------------------|
E|------------|-----------------||-----------------------------------------------|

[10. I’m So Tired](Lennon/McCartney)
[VERSE
]
  4/4
G|---------------------------------|---------------------------------|
D|-7---------------6---------------|-----------------------------6---|
A|---------------------------------|-5---------------7-------9-------|
E|---------------------------------|---------------------------------|

G|---------------------------------|---------------------------------|
D|-7---------------4---------------|-------------------------6-------|
A|-----------------------------7---|-5---------------7---9-------7---|
E|---------------------------------|---------------------------------|

                                    2/4
G|---------------------------------|-----------------|
D|-7-------------------------------|-----------------|
A|-----------------7---------------|-9---------------|
E|---------------------------------|-----------------|

  4/4
G|---------------------------------|---------------------------------|
D|---------------------------------|-7---------------6---------------|
A|-5---5---5---5---5---8---7---5---|---------------------------------|
E|---------------------------------|---------------------------------|

G|---------------------------------|---------------------------------|
D|-------------------------6-------|-7---------------4---------------|
A|-5---------------7---9-------7---|-----------------------------7---|
E|---------------------------------|---------------------------------|

G|---------------------------------|---------------------------------|
D|-------------------------6-------|-7-------------------------------|
A|-5---------------7---9-------7---|---------4---5---7---7---9---7---|
E|---------------------------------|---------------------------------|

G|-----------------|-----------------7---------------|
D|-----------------|-------------------9-7\5-3-5-3---|
A|-9-------9-------|-5-----------5-------------------|
E|-----------------|---------------------------------|

[CHORUS
]
G|---------------------------------|---------------------------------|
D|-7---------------7---------------|-7---------------7-----------7---|
A|---------7---------------7-------|---------7---------------7-------|
E|---------------------------------|---------------------------------|

G|---------------------------------|---------------------------------|
D|-7---7-----------7---7-----------|-7---7-----------7---7-----------|
A|---------7---7-----------7---7---|---------7---7-----------7---7---|
E|---------------------------------|---------------------------------|

G|---------------------------------|---------------------------------|
D|-----------------4---4---5---6---|-7-------------------------------|
A|-5---5---7---7-------------------|---------------------------------|
E|---------------------------------|---------------------------------|

[VERSE
]
  4/4
G|---------------------------------|---------------------------------|
D|-7---------------6---------------|-------------------------6-------|
A|---------------------------------|-5---------------7---9-------7---|
E|---------------------------------|---------------------------------|

G|---------------------------------|---------------------------------|
D|-7---------------4---------------|-------------------------6-------|
A|---------------------------------|-5---------------7---9-------7---|
E|---------------------------------|---------------------------------|

                                    2/4
G|---------------------------------|-----------------|
D|-7-------------------------------|-----------------|
A|---------4---5---7---7---9---7---|-9-------9-------|
E|---------------------------------|-----------------|

  4/4                              CHORUS
G|-----------------7---------------|---------------------------------|
D|-------------------9-7\5-3-5-3---|-7---------------7---------------|
A|-5-----------5-------------------|---------7---------------7-------|
E|---------------------------------|---------------------------------|

G|---------------------------------|---------------------------------|
D|-7---------------7-----------7---|-7---7-----------7---7-----------|
A|---------7---------------7-------|---------7---7-----------7---7---|
E|---------------------------------|---------------------------------|

G|---------------------------------|---------------------------------|
D|-7---7-----------7---7-----------|-----------------4---4---5---6---|
A|---------7---7-----------7---7---|-5---5---7---7-------------------|
E|---------------------------------|---------------------------------|

G|---------------------------X-----|---------------------------------|
D|-7-------------------------6-X---|-----------------4---4---5---6---|
A|-----------------------------7---|-5---5---7---7-------------------|
E|---------------------------------|---------------------------------|

G|---------------------14\-14\-14\-|---------------------------------|
D|-7-------------------------------|-----------------4---4---5---6---|
A|---------------------------------|-5---5---7---7-------------------|
E|---------------------------------|---------------------------------|

G|---------------------------------|
D|-7-------------------------------|
A|---------------------------------|
E|---------------------------------|

11. Blackbird (Lennon/McCartney)
No bass part for this song.
12. Piggies (George Harrison)
[VERSE
]
G|---------------------------------|---------------------------------|
D|-6-------------------------------|-6-------------------------------|
A|-----------------6---------------|-----------------6---------------|
E|---------------------------------|---------------------------------|

G|---------------------------------|---------------------------------|
D|-6-------------------------------|-----------------8---------------|
A|-----------------6---------------|-8-------------------------------|
E|---------------------------------|---------------------------------|

G|---------------------------------|---------------------------------|
D|-----------------8---------------|---------------------------------|
A|-8-------------------------------|-6-------------------------------|
E|---------------------------------|---------------------------------|

G|---------------------------------|---------------------------------|
D|-6-------------------------------|-6-------------------------------|
A|-----------------6---------------|-----------------6---------------|
E|---------------------------------|---------------------------------|

[VERSE
]
G|---------------------------------|---------------------------------|
D|-6-------------------------------|-6-------------------------------|
A|-----------------6---------------|-----------------6---------------|
E|---------------------------------|---------------------------------|

G|---------------------------------|---------------------------------|
D|-6-------------------------------|-----------------8---------------|
A|-----------------6---------------|-8-------------------------------|
E|---------------------------------|---------------------------------|

G|---------------------------------|---------------------------------|
D|-----------------8---------------|---------------------------------|
A|-8-------------------------------|-6-------------------------------|
E|---------------------------------|---------------------------------|

G|---------------------------------|---------------------------------|
D|-6-------------------------------|-6-------------------------------|
A|-----------------6---------------|-----------------3---------------|
E|---------------------------------|---------------------------------|

[BRIDGE
]
G|---------------------------------|---------------------------------|
D|---------------------------------|---------------------------------|
A|-1-------1-------3-------3-------|-4-------4-------6-------6-------|
E|---------------------------------|---------------------------------|

G|---------------------------------|---------------------------------|
D|---------------------------------|-8-------8-----------------------|
A|-6-------6-------6-------6-------|-----------------6-------6-------|
E|---------------------------------|---------------------------------|

G|---------------------------------|---------------------------------|
D|---------------------------------|---------------------------------|
A|-1-------1-------3-------3-------|-4-------4-------6-------6-------|
E|---------------------------------|---------------------------------|

G|---------------------------------|
D|---------------------------------|
A|-6-------6-------6-------6-------|
E|---------------------------------|

[SOLO
]
G|---------------------------------|---------------------------------|
D|-6-------------------------------|-6-------------------------------|
A|-----------------6---------------|-----------------6---------------|
E|---------------------------------|---------------------------------|

G|---------------------------------|---------------------------------|
D|-6-------------------------------|-----------------8---------------|
A|-----------------6---------------|-8-------------------------------|
E|---------------------------------|---------------------------------|

G|---------------------------------|---------------------------------|
D|-----------------8---------------|---------------------------------|
A|-8-------------------------------|-6-------------------------------|
E|---------------------------------|---------------------------------|

G|---------------------------------|---------------------------------|
D|-6-------------------------------|-6-------------------------------|
A|-----------------6---------------|-----------------6---------------|
E|---------------------------------|---------------------------------|

[VERSE
]
G|---------------------------------|---------------------------------|
D|-6-------------------------------|-6-------------------------------|
A|-----------------6---------------|-----------------6---------------|
E|---------------------------------|---------------------------------|

G|---------------------------------|---------------------------------|
D|-6-------------------------------|-----------------8---------------|
A|-----------------6---------------|-8-------------------------------|
E|---------------------------------|---------------------------------|

G|---------------------------------|---------------------------------|
D|-----------------8---------------|---------------------------------|
A|-8-------------------------------|-6-------------------------------|
E|---------------------------------|---------------------------------|

G|---------------------------------|---------------------------------|
D|-6-------------------------------|-6-------------------------------|
A|-----------------6---------------|-----------------6---------------|
E|---------------------------------|---------------------------------|

G|---------------------------------|---------------------------------|
D|-6-------------------------------|-8-------------------------------|
A|-----------------6---------------|-----------------6---------------|
E|---------------------------------|---------------------------------|

[13. Rocky Raccoon](Lennon/McCartney)
[VERSE
]
   tr                                tr
G|---------------------------------|---------------------------------|
D|---------------------------------|---------------------------------|
A|-0-------------------------------|-5-------------------------------|
E|---------------------------------|---------------------------------|
  his rival it seems...

   tr                                tr              tr
G|---------------------------------|---------------------------------|
D|---------------------------------|---------------------------------|
A|---------------------------------|-3---------------2---------------|
E|-3-------------------------------|---------------------------------|

G|---------------------------------|---------------------------------|
D|---------------------------------|-----------------7---------------|
A|-0-------------------------------|-5-------------------------------|
E|-----------------0---------------|---------------------------------|

G|---------------------------------|-5---------------4---------------|
D|-5-------------------------------|---------------------------------|
A|-----------------5---------------|---------------------------------|
E|---------------------------------|---------------------------------|

G|---------------------------------|---------------------------------|
D|-7-------------------------------|-----------------7---------------|
A|-----------------7---------------|-5-------------------------------|
E|---------------------------------|---------------------------------|

G|---------------------------------|-5---------------4---------------|
D|-5-------------------------------|---------------------------------|
A|-----------------5---------------|---------------------------------|
E|---------------------------------|---------------------------------|

G|---------------------------------|---------------------------------|
D|-7-------------------------------|-----------------7---------------|
A|-----------------7---------------|-5-------------------------------|
E|---------------------------------|---------------------------------|

G|---------------------------------|-5---------------4---------------|
D|-5-------------------------------|---------------------------------|
A|-----------------5---------------|---------------------------------|
E|---------------------------------|---------------------------------|

G|---------------------------------|---------------------------------|
D|-7-------------------------------|-----------------7---------------|
A|-----------------7---------------|-5-------------------------------|
E|---------------------------------|---------------------------------|

G|---------------------------------|-5---------------4---------------|
D|-5-------------------------------|---------------------------------|
A|-----------------5---------------|---------------------------------|
E|---------------------------------|---------------------------------|

[CHORUS
]
G|---------------------------------|---------------------------------|
D|-7---------------7---------------|---------7---------------7-------|
A|---------7---------------7-------|-5---------------5---------------|
E|---------------------------------|---------------------------------|

G|---------------------------------|-5---------------4-------4-------|
D|-5---------------5---------------|---------5-----------------------|
A|---------5---------------5-------|---------------------------------|
E|---------------------------------|---------------------------------|

G|---------------------------------|---------------------------------|
D|-7---------------7---------------|---------7---------------7-------|
A|---------7---------------7-------|-5---------------5---------------|
E|---------------------------------|---------------------------------|

G|---------------------------------|-5---------------4-------4-------|
D|-5---------------5---------------|---------5-----------------------|
A|---------5---------------5-------|---------------------------------|
E|---------------------------------|---------------------------------|

[VERSE
]
G|---------------------------------|---------------------------------|
D|-7-------------------------------|-----------------7---------------|
A|-----------------7---------------|-5-------------------------------|
E|---------------------------------|---------------------------------|

G|---------------------------------|-5---------------4---------------|
D|-5-------------------------------|---------------------------------|
A|-----------------5---------------|---------------------------------|
E|---------------------------------|---------------------------------|

G|---------------------------------|---------------------------------|
D|-7-------------------------------|-----------------7---------------|
A|-----------------7---------------|-5-------------------------------|
E|---------------------------------|---------------------------------|

G|---------------------------------|-5---------------4---------------|
D|-5-------------------------------|---------------------------------|
A|-----------------5---------------|---------------------------------|
E|---------------------------------|---------------------------------|

[VERSE
]
   tr              tr                tr                      tr
G|---------------------------------|---------------------------------|
D|-7---------------7---------------|-------------------------7-------|
A|---------------------------------|-5-------------------------------|
E|---------------------------------|---------------------------------|

   tr              tr                tr              tr
G|---------------------------------|-5---------------4---------------|
D|-5---------------5---------------|---------------------------------|
A|---------------------------------|---------------------------------|
E|---------------------------------|---------------------------------|

   tr              tr                tr                      tr
G|---------------------------------|-----------------7---------------|
D|-7---------------7---------------|-------------------7-----7-------|
A|---------------------------------|-5-------------------5-----------|
E|---------------------------------|---------------------------------|

   tr              tr                tr              tr
G|---------------------------------|-5---------------4---------------|
D|-5---------------5---------------|---------------------------------|
A|---------------------------------|---------------------------------|
E|---------------------------------|---------------------------------|

[CHORUS
]
G|---------------------------------|---------------------------------|
D|-7---------------7---------------|---------7---------------7-------|
A|---------7---------------7-------|-5---------------5---------------|
E|---------------------------------|---------------------------------|

G|---------------------------------|-5---------------4-------4-------|
D|-5---------------5---------------|---------5-----------------------|
A|---------5---------------5-------|---------------------------------|
E|---------------------------------|---------------------------------|

G|---------------------------------|---------------------------------|
D|-7---------------7---------------|---------7---------------7-------|
A|---------7---------------7-------|-5---------------5---------------|
E|---------------------------------|---------------------------------|

G|---------------------------------|-5---------------5-------5-------|
D|-5---------------5-------7-------|---------5-----------5-----------|
A|---------5-----------------------|---------------------------------|
E|---------------------------------|---------------------------------|

14. Don't Pass Me By (Richard Starkey)
Timing 2/4

G|5-5-------------5---------------|5---------------5---------------|
D|------------------------5-------|--------5---------------5-------|
A|--------------------------------|--------------------------------|
E|--------------------------------|--------------------------------|

G|5---------------5---------------|5---5-----------5---------------|
D|--------5---------------5-------|--------5---------------5-------|
A|--------------------------------|--------------------------------|
E|--------------------------------|--------------------------------|

G|5-------------------------------|--------------------------------|
D|--------5---5---3---------------|3---------------3---------------|
A|------------------------3-------|--------3---------------3-------|
E|--------------------------------|--------------------------------|

G|--------------------------------|--------------------------------|
D|3-------2---3---5---------------|5---------------5---------------|
A|------------------------5-------|--------5---------------5-------|
E|--------------------------------|--------------------------------|

G|--------------------------------|--------------------------------|
D|5---------------3---------------|3---------------3---3---3---5---|
A|--------5---------------3-------|--------3-----------------------|
E|--------------------------------|--------------------------------|

G|5---------------5---------------|5---------------5---------------|
D|--------5---------------5-------|--------5---------------5-------|
A|--------------------------------|--------------------------------|
E|--------------------------------|--------------------------------|

G|----------------|5---------------|
D|5-------5-------|--------5-------|
A|----------------|----------------|
E|----------------|----------------|

Repeat as necessary
15. Why Don’t We Do It in the Road (Lennon/McCartney)
12 bar blues structure
G|----------------------|
D|----------------------|
A|--5-5-5-5-5-5-5-3-----|
E|----------------------|X4

G|----------------------|
D|--5-5-5-5-5-5-5-3-----|
A|----------------------|
E|----------------------|X2

G|----------------------|
D|----------------------|
A|--5-5-5-5-5-5-5-3-----|
E|----------------------|X2

G|--------------------------------------------------------|
D|--7-7-7-7-7-7-7-7-6-5-5-5-5-5-5-5-5-3-------------------|
A|--------------------------------------5-5-5-5-5-5-5-3-5-|
E|--------------------------------------------------------|

G|--------------------------------------|
D|--------------------------------------|
A|--5-5-5-5-5-5-5-3-----5-5-5-5-5-----3-|
E|--------------------------------3-5---|

G|--------------------------------------|
D|--------------------------------------|
A|--5-5-5-5-5-5-5-3-----5-5-5-5-5-5-5-5-|
E|--------------------------------------|

G|---------------------------------------|
D|--5-5-5-5-5-5-5-3-----5-5-5-5-5-5------|
A|---------------------------------5-5-3-|
E|---------------------------------------|

G|----------------------------------------|
D|----------------------------------------|
A|--5-5-5-5-5-5-5-3-----5-5-5-5-5-5-5-5-3-|
E|----------------------------------------|

G|--------------------------------------------------------|
D|--7-7-7-7-7-7-7-7-6-5-5-5-5-5-5-5-5-3-------------------|
A|--------------------------------------5-5-5-5-5-5-5-3-5-|
E|--------------------------------------------------------|

G|----------------------|
D|----------------------|
A|--5-5-5-5-5-5-5-3-5---|
E|----------------------|

(break)  "Whyyyyyy Dont We Do It In The Road"
G|---------------------------------------------------|
D|---------------------------12-12-10-10-7-7-5-5-----|
A|--5-5-5-5-5-5-5-0h3-5--5-5---------------------5-5-|
E|---------------------------------------------------|

G|-----7-7-7-7-5--------------------------|
D|---------------7-5----------------------|
A|-------------------8--5-5-5-5-5-5-5-5-5-|
E|----------------------------------------|

G|------------------------------------|
D|-5-5-5-5-5-5-5-5-3--5-5-5-5-3-5-5-3-|
A|------------------------------------|
E|------------------------------------|

G|----------------------------------------|
D|----------------------------------------|
A|--5-5-5-5-5-5-5-3-----5-5-5-5-5-5-5-5-3-|
E|----------------------------------------|

G|-------------------|
D|-7-7-7-7-7-7-7-6-5-|
A|-------------------|
E|-------------------|

16. I Will (Lennon/McCartney)
(SCAT BASS)
[VERSE
]
G|---------------------------------|-0---------------5-------5-------|
D|-3---------------0---------------|---------------------------------|
A|---------------------------------|---------------------------------|
E|---------------------------------|---------------------------------|
  dum             dum               dum             dum     dum

G|-----------------7---------------|-------------------------5-------|
D|-3-------------------------------|-7---------------7---------------|
A|---------------------------------|---------------------------------|
E|---------------------------------|---------------------------------|
  dum             dum               dum             dum     dum

G|-3-------------------------------|-2---------------2-------2-------|
D|-----------------5---------------|---------------------------------|
A|---------------------------------|---------------------------------|
E|---------------------------------|---------------------------------|
  dum             dum               dum             dum     dum

G|-3-------------------------------|-----------------7---------------|
D|-----------------5---------------|-3-------------------------------|
A|---------------------------------|---------------------------------|
E|---------------------------------|---------------------------------|
  dum             dum               dum             dum

G|-----------------5-------5-------|
D|-5-------------------------------|
A|---------------------------------|
E|---------------------------------|
  dum             dum     dum

[VERSE
]
G|-----------------7---------------|-0---------------5-------5-------|
D|-3-------------------------------|---------------------------------|
A|---------------------------------|---------------------------------|
E|---------------------------------|---------------------------------|
  dum             dum               dum             dum     dum

G|-----------------7---------------|-------------------------5-------|
D|-3-------------------------------|-7---------------7---------------|
A|---------------------------------|---------------------------------|
E|---------------------------------|---------------------------------|
  dum             dum               dum             dum     dum

G|-3-------------------------------|-2---------------2-------2-------|
D|-----------------5---------------|---------------------------------|
A|---------------------------------|---------------------------------|
E|---------------------------------|---------------------------------|
  dum             dum               dum             dum     dum

G|-3-------------------------------|---------------------0---2-------|
D|-----------------5---------------|-3---------------3-----------3---|
A|---------------------------------|---------------------------------|
E|---------------------------------|---------------------------------|
  dum             dum               dum             dum dum dum dum

[BRIDGE
]
G|-3---------------2---------------|-7-----------7-------5---3---2---|
D|---------------------------------|---------------------------------|
A|---------------------------------|---------------------------------|
E|---------------------------------|---------------------------------|
  dum             dum               dum         dum     dum dum dum

G|-----------------5---------------|---------------------0---2-------|
D|-5-------------------------------|-3---------------3-----------3---|
A|---------------------------------|---------------------------------|
E|---------------------------------|---------------------------------|
  dum             dum               dum             dum dum dum dum

G|-3---------------2---------------|-7-----------7-------5---3---2---|
D|---------------------------------|---------------------------------|
A|---------------------------------|---------------------------------|
E|---------------------------------|---------------------------------|
  dum             dum               dum         dum     dum dum dum

G|---------------------------------|-5-------3-------2-------0-------|
D|-5---------------5-------5-------|---------------------------------|
A|---------------------------------|---------------------------------|
E|---------------------------------|---------------------------------|
  dum             dum     dum       dum     dum     dum     dum

[VERSE
]
G|---------------------------------|-0---------------5-------5-------|
D|-3---------------0---------------|---------------------------------|
A|---------------------------------|---------------------------------|
E|---------------------------------|---------------------------------|
dum             dum               dum             dum     dum

G|-----------------7---------------|-------------------------5-------|
D|-3-------------------------------|-7---------------7---------------|
A|---------------------------------|---------------------------------|
E|---------------------------------|---------------------------------|
dum             dum               dum             dum     dum

G|-3-------------------------------|---------7-------10--------------|
D|-----------------5---------------|-7-----------------------7-------|
A|---------------------------------|---------------------------------|
E|---------------------------------|---------------------------------|
  dum             dum               dum     dum     dum     dum

G|-3-------------------------------|---------7-------10--------------|
D|-----------------5---------------|-7-------------------------------|
A|---------------------------------|---------------------------------|
E|---------------------------------|---------------------------------|
  dum             dum               dum     dum     dum

G|-3-------------------------------|---------9-------10------10------|
D|-----------------5---------------|-7-------------------------------|
A|---------------------------------|---------------------------------|
E|---------------------------------|---------------------------------|
  dum             dum               dum     dum     dum     dum

G|-----------------5---------------|---------------------------------|
D|-5-------------------------------|-3-------3-------3-------3-------|
A|---------------------------------|---------------------------------|
E|---------------------------------|---------------------------------|
  dum             dum               dum     dum     dum     dum

G|---------------------------------|---------------------------------|
D|-3-------3-------3-------3-------|-3-------3-------3-------3-------|
A|---------------------------------|---------------------------------|
E|---------------------------------|---------------------------------|
  dum     dum     dum     dum       dum     dum     dum     dum

G|---------------------0---2-------|-3---------------2---------------|
D|-3-------3-------3-----------3---|---------------------------------|
A|---------------------------------|---------------------------------|
E|---------------------------------|---------------------------------|
  dum     dum     dum dum dum dum   dum             dum

G|-7-----------7-------5---3---2---|-----------------5---------------|
D|---------------------------------|-5-------------------------------|
A|---------------------------------|---------------------------------|
E|---------------------------------|---------------------------------|
  dum         dum     dum dum dum   dum             dum

G|---------------------------------|
D|-3-------------------------------|
A|---------------------------------|
E|---------------------------------|
  dum

17. Julia (Lennon/McCartney)
No bass part in this one either.
Side 3
18. Birthday (Lennon/McCartney)
[Intro & Verse]("You see it's your birthday...")
  A
G|----------------------------------|----------------------------------|
D|----------------------------------|----------------------------------|
A|------7-9/10-9-7-------7-9/10-9-7-|------7-9/10-9-7-------7-9/10-9-7-|
E|5-5-9------------5-5-9------------|5-5-9------------5-5-9------------|
you may slide up to E|9|

  D                                  A
G|----------------------------------|----------------------------------|
D|------7-9/10-9-7-------7-9/10-9-7-|----------------------------------|
A|5-5-9------------5-5-9------------|------7-9/10-9-7-------7-9/10-9-8-|
E|----------------------------------|5-5-9------------5-5-9------------|

  E                                     A
G|-------------------------------------|----------------------------------|
D|-------9-11/12-11-9--------9-11/12-9-|----------------------------------|
A|7-7-11--------------7-7-11-----------|------7-9/10-9-7-------7-9/10-9-8-|
E|-------------------------------------|5-5-9------------5-5-9------------|

("Yes we're goin' to a Party, Party...")
  E
G|--------------------------------|--------------------------------|
D|--------------------------------|--------------------------------|
A|7-7-7-7-7-7-7-7-7-7-7-7-7-7-7-7-|7-7-7-7-7-7-7-7-7-7-7-7-7-7-7-7-| 2x
E|--------------------------------|--------------------------------|

("I would like you to dance...")
  C   E   F   F#  G     F   E   D
G|------------------------------------|------------------------------------|
D|------------------------------------|------------------------------------|
A|----7-7-8-8-9-9-10-10-8-8-7-7-------|----7-7-8-8-9-9-10-10-8-8-7-7-------|
E|8-8---------------------------10-10-|8-8---------------------------10-10-|
                               \______  ______/
                                      2x

  C   E   F   F#  G     Ab  A   A#   B               B
G|----------------------------------|--------------------------------|
D|----------------------6-6-7-7-8-8-|9-9-9-9-9-9-9-9-----------------|
A|----7-7-8-8-9-9-10-10-------------|--------------------------------|
E|8-8-------------------------------|----------------7-7-7-7-7-7-7-7-|

Verse Again...
G|--------------------------------|--------------5-7/9-7-5h7p5-------|
D|------5---7----5----------------|------5---7-----------------7-5---|
A|--7--------------7-5------------|--7-------------------------------|
E|5--------------------7-5-3------|5---------------------------------|

("I would like you to dance...")
  C   E   F   F#  G     F   E   D
G|------------------------------------|------------------------------------|
D|------------------------------------|------------------------------------|
A|----7-7-8-8-9-9-10-10-8-8-7-7-------|----7-7-8-8-9-9-10-10-8-8-7-7-------|
E|8-8---------------------------10-10-|8-8---------------------------10-10-|
                               \______  ______/
                                      2x

  C   E   F   F#  G     Ab  A   A#   B               B
G|----------------------------------|--------------------------------|
D|----------------------6-6-7-7-8-8-|9-9-9-9-9-9-9-9-----------------|
A|----7-7-8-8-9-9-10-10-------------|--------------------------------|
E|8-8-------------------------------|----------------7-7-7-7-7-7-7-7-|

[Verse again....
]
[instead of the last A-part]
A
G|----------------------------------|----------------------------------|
D|----------------------------------|----------------------------------|
A|------7-9/10-9---------7-9/10-9---|------7-9/10-9-7------------------|
E|5-5-9------------5--5-9----------5|--5-9------------5----------------|
you may slide up to E|9|                              let ring...

19. Yer Blues (Lennon/McCartney)
[Verse]
  t=77
  12/8
G|-------------------------------------------------|
D|-------------------------------------------------|
A|-------------------------------------------------|
E|-0-----------------------0-------0---0-----------|

G|-------------------------------------------------|
D|-------------------------------------------------|
A|-------------------------------------------------|
E|-0-----------------------0-------0---0-----------|

G|-------------------------------------------------|
D|-------------------------------------------------|
A|-------------------------------------------------|
E|-5-----------------------5-------5---5---6---7---|

G|-------------------------------------------------|
D|-------------------------------------------------|
A|-------------------------------------------------|
E|-0-----------0-----------0-----------0-------2---|

  6/8                       8/8
G|-------------------------|---------------------------------|
D|-------------------------|---------------------------------|
A|-------------------------|---------------------------------|
E|-3-----------3-------5---|-7\------------------------------|

  12/8
G|-------------------------------------------------|
D|-------------------------------------------------|
A|-------------------------------------------------|
E|-0-------4---5-------6---7---0---7---7---7---7---|

[Verse]

G|-------------------------------------------------|
D|-------------------------------------------------|
A|-7-----------7-----------7-----------777-7-5-----|
E|---------------------------------------------7-3-|

G|-------------------------------------------------|
D|-------------------------------------------------|
A|---------7---7-------7---7-------7---75----------|
E|-0-------------------------------------7-0---3---|

G|-------------------------------------------------|
D|-------------------------------------------------|
A|-------------------------------------------------|
E|-5-------5---5-------5---5-------5---5---6---7---|

G|-------------------------------------------------|
D|-------------------------------------------------|
A|-7-------7---7-------7---7-------7---7-----------|
E|-----------------------------------------0---2---|

  6/8                       8/8
G|-------------------------|---------------------------------|
D|-------------------------|---------------------------------|
A|-------------------------|---------------------------------|
E|-3-------3---3---4---5---|-7\------------------------------|

  12/8
G|-------------------------------------------------|
D|-------------------------------------------------|
A|-7-----------------------------------2---2---2---|
E|---------3---5-------7---0---0---0---------------|

[Bridge]
  t=105
  4/4
G|---------------------------------|---------------------------------|
D|---------------------------------|---------------------------------|
A|---------------------------------|---------------------------------|
E|-0-----------------------7-------|-0-----------------------7-------|

                                    6/8
G|---------------------------------|-------------999-9-9-9---|
D|---------------------------------|-------------------------|
A|---------------------------------|-------------------------|
E|-0-------------------------------|-----------------------4-|

[Verse]
  t=77
  12/8
G|-------------------------------------------------|
D|-------------------------------------------------|
A|-------------------------------------------------|
E|-5---5---5---5---5---5-5-5---5---5---5---6---7---|

G|-------------------------------------------------|
D|-------------------------------------------------|
A|-------------------------7-------7---7-------5---|
E|-0-----------0---5---3---------------------------|

  6/8                       8/8
G|-------------------------|---------------------------------|
D|-------------------------|---------------------------------|
A|-------------------------|---------------------------------|
E|-3-------3---3---5---6---|-7-------------------------------|

  12/8
G|-------------------------------------------------|
D|-------------------------------------------------|
A|-------------------------------------------------|
E|-0-------4---5-------6---7---0---7---7---7---7---|

[Bridge]
  t=105
  4/4
G|---------------------------------|---------------------------------|
D|---------------------------------|---------------------------------|
A|-7-------------------------------|---------------------------------|
E|-------------------------7-------|-0-----------------------7-------|

                                    6/8
G|---------------------------------|-------------999-9-9-9---|
D|---------------------------------|-------------------------|
A|---------------------------------|-------------------------|
E|-0-------------------------------|-----------------------4-|

[Verse]
  t=77
  12/8
G|-------------------------------------------------|
D|-------------------------------------------------|
A|-------------------------------------------------|
E|-5---5---5---5---5---5-5-5---5---5---5---6---7---|

G|-------------------------------------------------|
D|-------------------------------------------------|
A|-7---7---7---7---7---6---7---7---7---7-----------|
E|-----------------------------------------0---2---|

  6/8                       8/8
G|-------------------------|---------------------------------|
D|-------------------------|---------------------------------|
A|-------------------------|---------------------------------|
E|-3-------3---3---5---6---|-7-------------------------------|

  12/8
G|-------------------------------------------------|
D|-------------------------------------------------|
A|-------------------------------------------------|
E|-0-------4---5-------6---7---0---7---7---7---7---|

[Bridge]
  t=105
  4/4
G|---------------------------------|---------------------------------|
D|---------------------------------|---------------------------------|
A|-7-------------------------------|---------------------------------|
E|-------------------------7-------|-0-----------------------7-------|

G|---------------------------------|---------------------------------|
D|---------------------------------|---------------------------------|
A|---------------------------------|---------------------------------|
E|-0-------------------------------|-0-------2-------3-------4-------|

[Verse]
G|---------------------------------|---------------------------------|
D|---------------------------------|---------------------------------|
A|---------4-------5-------6----7--|---------4-------7-------4----7--|
E|-5-------------------------------|-5-------------------------------|

G|---------------------------------|---------------------------------|
D|---------------------------------|---------------------------------|
A|-----------------2------------2--|-----------------2------------2--|
E|-0-------4---------------4-------|-0-------4---------------4-------|

G|---------------------------------|---------------------------------|
D|---------------------------------|---------1-------4---------------|
A|---------2-------5-------2----5--|-2-----------------------2-------|
E|-3-------------------------------|---------------------------------|

G|---------------------------------|---------------------------------|
D|---------------------------------|---------------------------------|
A|---------------------------------|---------------------------------|
E|-0-------4-------5-------6-------|-7-------7-------7-------7-------|

[GUITAR SOLO
]
G|---------------------------------|---------------------------------|
D|---------------------------------|---------------------------------|
A|-7-------7-------7-------7-------|-7-------7-------7-------7-------|
E|------7-------7-------7-------7--|------7-------7-------7-------7--|

G|---------------------------------|---------------------------------|
D|---------------------------------|---------------------------------|
A|-7-------7-------7-------7-------|-7-------7-------7-------7-------|
E|------7-------7-------7-------7--|------7-------7-------7-------7--|

G|---------------------------------|---------------------------------|
D|---------------------------------|---------------------------------|
A|---------------------------------|---------------------------------|
E|-5----5--5----5--5----5--5----3--|-5----5--5----3--5----3--5----3--|

G|---------------------------------|---------------------------------|
D|---------------------------------|---------------------------------|
A|-7----7--7-------7-------7-------|-7-------7-------7---------------|
E|--------------7-------7-------7--|------7-------7-------7--1----2--|

G|---------------------------------|---------------------------------|
D|---------------------------------|---------1-------4---------------|
A|-----------------2---------------|-2-----------------------2-------|
E|-3-------3---------------3-------|---------------------------------|

G|---------------------------------|---------------------------------|
D|---------------------------------|---------------------------------|
A|---------------------------------|---------4-------5-------6-------|
E|-0-------4-------5-------6-------|-7-------------------------------|

[GUITAR SOLO
]
G|---------------------------------|---------------------------------|
D|---------------------------------|---------------------------------|
A|-7-------7-------7-------7-------|-7-------7-------7---------------|
E|------------------------------7--|----------------------4--5----7--|

G|---------------------------------|---------------------------------|
D|---------------------------------|---------------------------------|
A|-7-------7-------7---------------|-7-------7-------7---------------|
E|----------------------4--5----7--|----------------------0--2----4--|

G|---------------------------------|---------------------------------|
D|---------------------------------|---------------------------------|
A|---------------------------------|---------------------------------|
E|-5-------5-------5----0--2----4--|-5-------5-------5----0--2----0--|

G|---------------------------------|---------------------------------|
D|---------------------------------|-2----2--2----2--2---------------|
A|-----------------2----2--2----2--|---------------------------------|
E|-0-------0-----------------------|----------------------0--1----2--|

G|---------------------------------|---------------------------------|
D|---------------------------------|------------------------------0--|
A|---------------------------------|-2-------2-------2----2--2-------|
E|-3-------3-------3----3--3----5--|--------------2------------------|

                    t=77
  4/8               12/8
G|-----------------|-------------------------------------------------|
D|-2---------------|-------------------------------------------------|
A|-----------------|-------------------------------------------------|
E|-----------------|-0-----------------------0-------0---0-----------|

G|-------------------------------------------------|
D|-------------------------------------------------|
A|-------------------------------------------------|
E|-0-----------------------0-------0---0-----------|

G|-------------------------------------------------|
D|-------------------------------------------------|
A|-------------------------------------------------|
E|-5-----------------------5-------5---5---6---7---|

G|-------------------------------------------------|
D|-------------------------------------------------|
A|-------------------------------------------------|
E|-0-----------0-----------0-----------0-------2---|

  6/8                       8/8
G|-------------------------|---------------------------------|
D|-------------------------|---------------------------------|
A|-------------------------|---------------------------------|
E|-3-----------3-------5---|-7\------------------------------|

  12/8
G|-------------------------------------------------|
D|-------------------------------------------------|
A|-------------------------------------------------|
E|-0-------4---5-------6---7---0---7---7---7---7---|

G|-------------------------------------------------|
D|-------------------------------------------------|
A|-7-----------7-----------7-----------777-7-5-----|
E|---------------------------------------------7-3-|

G|-------------------------------------------------|
D|-------------------------------------------------|
A|---------7---7-------7---7-------7---75----------|
E|-0-------------------------------------7-0---3---|FADE OUT

20. Mother Nature’s Son (Lennon/McCartney)
No bass again.
21. Everybody’s Got Something to Hide Except Me and My Monkey (Lennon/McCartney)
[INTRO
]
G|---------------------------------|---------------------------------|
D|---------------------------------|---------------------------------|
A|---------------------------------|---------------------------------|
E|---------------------------------|---------------------------------|

G|---------------------------------|---------------------------------|
D|---------------------------------|---------------------------------|
A|---------------------------------|---------------------------------|
E|---------------------------------|---------------------------------|

[VERSE
]
G|---------------------------------|---------------------------------|
D|---------------------------------|---------------------------------|
A|-7-------------------4---5---6---|-7-------------------4---5---6---|
E|-----0---4---5---7---------------|-----0---4---5---7---------------|

G|---------------------------------|---------------------------------|
D|---------------------------------|---------------------------------|
A|-7-------------------4---5---6---|-7-------------------4---5---6---|
E|-----0---4---5---7---------------|-----0---4---5---7---------------|

G|---------------------------------|---------------------------------|
D|---------------------------------|---------------------------------|
A|-7-------------------4---5---6---|-7-------------------4---5---6---|
E|-----0---4---5---7---------------|-----0-4---0-5---7---------------|

G|---------------------------------|---------------------------------|
D|---------------------------------|---------------------------------|
A|-0---0---0---0---0---0---0---0---|-0---0---0---0---0---0---0---0---|
E|---------------------------------|---------------------------------|

G|---------------------------------|---------------------------------|
D|---------------------------------|---------------------------------|
A|/5-------5---5---5---5---5---5---|/5---5---5---5---5---5---5---5---|
E|---------------------------------|---------------------------------|

G|---------------------------------|---------------------------------|
D|---------------------------------|---------------------9-9-7-x-----|
A|---------------------------------|-----------------------------9---|
E|-7---7---7---7---7---7---7---7---|-7---7---7---7---7---------------|

G|-------------------------|---------------------------------|
D|-------------------------|---------------------------------|
A|-7-----------5-----------|---------------------------------|
E|-------------------------|-3-------------------------------|

G|-------------------------|---------------------------------|
D|-------------------------|---------------------------------|
A|-7-----------------------|-5-------------------------------|
E|-------------3-----------|---------------------------------|


     VERSE

G|---------------------------------|---------------------------------|
D|---------------------------------|---------------------------------|
A|-7-------------------4---5---6---|-7-------------------4---5---6---|
E|-----0---4---5---7---------------|-----0-4---4-5---7---------------|

G|---------------------------------|---------------------------------|
D|---------------------------------|---------------------------------|
A|-7-------------------4---5---6---|-7-------------------4---5---6---|
E|-----0---4---5---7---------------|-----0-4-----5---7---------------|

G|---------------------------------|---------------------------------|
D|---------------------------------|---------------------------------|
A|-7-------------------4---5---6---|-7-------------------4---5---6---|
E|-----0---4---5---7---------------|-----0---4---5---7---------------|

G|---------------------------------|---------------------------------|
D|---------------------------------|---------------------------------|
A|-7-------------------4---5---6---|-7-------------------4---5---6---|
E|-----0---4---5---7---------------|-----0-4---4-5---7---------------|

G|---------------------------------|---------------------------------|
D|---------------------------------|---------------------------------|
A|-7-------------------4---5---6---|-7---------------x---4---5---5-6-|
E|-----0---4---5---7---------------|-----0-4---4-5-------------------|

G|---------------------------------|---------------------------------|
D|---------------------------------|-------------------7-7-5---5-----|
A|-7---0---0---0---0---0---0---0---|-0---0---0---0---0-----------7---|
E|---------------------------------|---------------------------------|

G|---------------------------------|---------------------------------|
D|---------------------------------|---------------------------------|
A|-5---5---5---5---5---5---5---5---|/5---0---5---0---5---5---5---0---|
E|---------------------------------|---------------------------------|

G|---------------------------------|---------------------------------|
D|---------------------------------|---------------------------9-9---|
A|---------------------------------|---------------------------------|
E|-7---7---7---7---7---7---7---7---|-7---0---7---7---7---7-----------|

G|-------------------------|---------------------------------|
D|-------------------------|---------------------------------|
A|-7-----------5-----------|---------------------------------|
E|-------------------------|-3-------------------------------|

G|-------------------------|---------------------------------|
D|-------------------------|---------------------------------|
A|-7-----------------------|-5-------------------------------|
E|-------------3-----------|---------------------------------|


     VERSE

G|---------------------------------|---------------------------------|
D|---------------------------------|---------------------------------|
A|-7-------------------4---5---6---|-7-------------------4---5---6---|
E|-----0---4---5---7---------------|-----0-4---4-5---7---------------|

G|---------------------------------|---------------------------------|
D|---------------------------------|---------------------------------|
A|-7-------------------4---5---6---|-7-------------------4---5---6---|
E|-----0---4---5---7---------------|-----0-4---4-5-------------------|

G|---------------------------------|---------------------------------|
D|---------------------------------|---------------------------------|
A|-7-------------------------------|-7-------------------4---5---6---|
E|-----0---4---5-------7-------7---|-----0---4---5---7---------------|

G|---------------------------------|---------------------------------|
D|---------------------------------|---------------------------------|
A|-7-------------------------------|-7-------------------4---5---5---|
E|-----0---4---5-------7-------7---|-----0-4---4-5---7---------------|

G|---------------------------------|---------------------------------|
D|---------------------------------|---------------------------------|
A|-7-------------------------------|-7-------------------4---5---5B7-|
E|-----0---4---5-------7-------7---|-----0-4---4-5---7---------------|

G|---------------------------------|---------------------------------|
D|---------------------------------|---------------------------------|
A|-0---0---0---0---0---0---0---0---|-0---0---0---0---0---0---0---0---|
E|---------------------------------|---------------------------------|

G|---------------------------------|---------------------------------|
D|---------------------------------|---------------------------------|
A|-5---5---5---5---5---5---5---5---|/5---0---5---0---5-5-5---5-5-0---|
E|---------------------------------|---------------------------------|

G|---------------------------------|---------------------------------|
D|---------------------------------|-----------------------9-7---7---|
A|---------------------------------|-------------------------------9-|
E|-7---7---7---7---7---7---7---7---|-7---7---7---7---7---7-----------|

G|-------------------------|---------------------------------|
D|-------------------------|---------------------------------|
A|-7-----------5-----------|---------------------------------|
E|-------------------------|-3-------------------------------|

G|-------------------------|---------------------------------|
D|-------------------------|---------------------------------|
A|-7-----------------------|-5-------------------------------|
E|-------------3-----------|---------------------------------|

G|---------------------------------|---------------------------------|
D|---------------------------------|---------------------------------|
A|-7-\-----------------------------|---------------------------------|
E|---------------------------------|-------------------------------7-|

G|---------------------------------|---------------------------------|
D|---------------------------------|---------------------------------|
A|-7---7---------------------------|4H5--5---5---5---4H5-5-5---5-5---|
E|---------0-0-0-4---4-5---6---7---|---------------------------------|

G|---------------------------------|---------------------------------|
D|---------------------------------|---------------------------------|
A|4H5--5---5---5---4H5-5-5---5-5---|4H5--5---5---5---4H5-5-5---5-5---|
E|---------------------------------|---------------------------------|


[OUTRO
]
G|---------------------------------|---------------------------------|
D|---------------------------------|---------------------------------|
A|-7-------------------4---5---6---|-7-------------------4---5---6---|
E|-----0---4---5---7---------------|-----0---4---5---7---------------|

G|---------------------------------|---------------------------------|
D|---------------------------------|---------------------------------|
A|-7-------------------4---5---6---|---------------------4---5---6---|
E|-----0---4---5---7---------------|-0-----------5---7---------------|

G|---------------------------------|---------------------------------|
D|---------------------------------|---------------------------------|
A|-7-------------------4---5---6---|-7-------------------4---5---6---|
E|-----0---4---5---7---------------|-----0-4---0-5---7---------------| .....

22. Sexy Sadie (Lennon/McCartney)
[INTRO
]
  t=76                     00:00
G|---------------------------------|---------------------------------|
D|---------------------------------|---------------------------------|
A|---------------------------------|---------------------------------|
E|---------------------------------|---------------------------------|

G|---------------------------------|---------------------------------|
D|---------------------------------|---------------------------------|
A|---------------------------------|---------------------------------|
E|---------------------------------|---------------------------------|

[VERSE
]
[00:09
]
G|---------------------------------|---------------------4---2-------|
D|-5-----------5---4---4-------4---|-------------4-------------4-----|
A|---------------------------------|-2-------------------------------|
E|---------------------------------|---------------------------------|

G|---------------------------------|---------------------------------|
D|-------------------------4-------|-5---5-------5---4---4-------4---|
A|-3-------5---7---5---7-------5---|---------------------------------|
E|---------------------------------|---------------------------------|

G|---------------------------------|---------------------------------|
D|-------------------------4-------|-5---5-------5---4---4-------4---|
A|-3---2---3---4---5---7-------5---|---------------------------------|
E|---------------------------------|---------------------------------|

G|---------------------------------|
D|-3---3-------3-----------4-------|
A|-----------------5---7-------5---|
E|---------------------------------|

[VERSE
]
[00:31
]
G|---------------------------------|-------------4-------4---2-------|
D|-5-----------5---4---4-------4---|---------------------------------|
A|---------------------------------|-2---------------------------2---|
E|---------------------------------|---------------------------------|

G|---------------------------------|---------------------------------|
D|-------------------------4-------|-5---5-------5---4---4-------4---|
A|-3---2---3---4---5---7-------5---|---------------------------------|
E|---------------------------------|---------------------------------|

G|---------------------------------|---------------------------------|
D|---------2---------------4-------|-5---5---5---5---4---4---4---4---|
A|-3---5-------3---5---7-------5---|---------------------------------|
E|---------------------------------|---------------------------------|

G|---------5-----------------------|
D|-3---3-------3-----------4-------|
A|-----------------5---7-------5---|
E|---------------------------------|

[BRIDGE
]
[00:54
]
G|---------------------------------|---------------------------------|
D|-5---5---5-------7-------7-------|-9---9---9-------10--9---7p5-7---|
A|-------------5---------------5---|-------------5-------------------|
E|---------------------------------|---------------------------------|

G|---------------------------------|---------------------------------|
D|-5---5---5-\-----7-------7-\-----|-9---9---9-------10--9---7p5-7---|
A|---------------------x-------5---|-------------5-------------------|
E|---------------------------------|---------------------------------|

G|---------------------------------|
D|-7-----------7---6-----------6---|
A|---------------------------------|
E|---------------------------------|

[VERSE
]
[01:09
]
G|---------------------------------|-------------4-------------------|
D|-5-----------5---4-----------4---|---------------------2/4---6p4---|
A|---------------------------------|-2-------------------------------|
E|---------------------------------|---------------------------------|

G|---------------------------------|---------------------------------|
D|---------2---------------4-------|-5---5-------5---4-------4-------|
A|-3---5-------3---5---7-------5---|-----------------------------2---|
E|---------------------------------|---------------------------------|

G|---------------------------------|---------------------------------|
D|-------------------------4-------|-5---5---5---5---4---4---4---4---|
A|-3---2---3---4---5---7-------5---|---------------------------------|
E|---------------------------------|---------------------------------|

G|---------------------7---7---7---|
D|-3---3---3---3-------------------|
A|-----------------5---------------|
E|---------------------------------|

[VERSE
]
[01:32
]
G|---------------------------------|-------------------4-4-----4-4---|
D|-5---5---5---5---4---4---4---4---|-------------4-------------------|
A|---------------------------------|-2-------------------------------|
E|---------------------------------|---------------------------------|

G|---------------------------------|---------------------------------|
D|-------------------------4-------|-5---5-------5---4---4-----------|
A|-3---3---5---7---5---7-------5---|---------5-------------------2---|
E|---------------------------------|---------------------------------|

G|---------------------------------|---------------------------------|
D|-------------------------4-------|-5---5---5---5---4---4---4---4---|
A|-3---2---3---4---5---7-------5---|---------------------------------|
E|---------------------------------|---------------------------------|

G|---------------------7---7-------|
D|-3---3---3---3---------------4---|
A|-----------------5---------------|
E|---------------------------------|

[BRIDGE
]
[01:54
]
G|---------------------------------|---------------------------------|
D|-5---------------7-------7-------|-9---------------10--9---7p5-7---|
A|-------------5---------------5---|-------------5-------------------|
E|---------------------------------|---------------------------------|

G|---------------------------------|---------------------------------|
D|-5-------5-------7-------7-------|-9-------9-------10--9---7p5-7---|
A|-------------5---------------5---|-------------5-------------------|
E|---------------------------------|---------------------------------|

G|---------------------------------|---------------------------------|
D|-7---7---7---7---6---6---6---6---|-5---5---5---5---4---4-------4---|
A|---------------------------------|---------------------------------|
E|---------------------------------|---------------------------------|

G|-------------4-4---4-4-----------|
D|-------------------------2/4-2---|
A|-2-------------------------------|
E|---------------------------------|

[GUITAR SOLO
]
[02:16
]
G|---------------------------------|---------------------------------|
D|-----------------------------4---|-5---5---4---5---4---4-----------|
A|-3-------5---7---5-------7-------|-----------------------------2---|
E|---------------------------------|---------------------------------|

G|---------------------------------|---------------------------------|
D|-------------------------4-------|-5---5-------5---4---4-------4---|
A|-3---3---3---3---5---7-------5---|---------------------------------|
E|---------------------------------|---------------------------------|

G|---------------------7---7-------|---------------------------------|
D|-3---3-------3---------------4---|-5---5-------5---4---4-----------|
A|-----------------5---------------|-------------------------5---4---|
E|---------------------------------|---------------------------------|

G|-------------4-------4-----------|---------------------------------|
D|-------------------------2---4---|---------2---------------4-------|
A|-2-------------------------------|-3---5-------3---5---7-------5---|
E|---------------------------------|---------------------------------|

G|---------------------------------|---------------------------------|
D|-5---5---5---5---4---4---4---4---|-------------------------4-------|
A|---------------------------------|-3---3---3---3---5---7-------5---|
E|---------------------------------|---------------------------------|

G|---------------------------------|---------------------------------|
D|---------------------------------|-----3---3---3---------------4---|
A|---------------------------------|-----------------5---5---5-------|
E|-3---3-------3-2-2---2-------2---|-1-------------------------------|

[02:55
]
G|---------------------------------|---------4---4---4---4-----------|
D|-5---5---5-------4---4---4-------|-------------------------4---5---|
A|-------------5---------------4---|-2-------------------------------|
E|---------------------------------|---------------------------------|

G|---------------------------------|-------------7-\-------------6-\-|
D|---------2---------------4-------|-5---5---5-------4---4---4-------|
A|-3---5-------3---5---7-------5---|---------------------------------|
E|---------------------------------|---------------------------------|

G|---------------------------------|---------------------------------|
D|---------2---------------4---5---|-5---5---4---5---4---4---4---4---|
A|-3---5-------3---5---7-----------|---------------------------------|
E|---------------------------------|---------------------------------|
                                                             FADE OUT

23. Helter Skelter (Lennon/McCartney)

[00:13]
G|--------------------------------|---------------------------------|
D|--------------------------------|---------------------------------|
A|--------------------------------|---------------------------------|
E|--------------------------------|---3---3---3---3---3---3-2-3-5-7-|

G|--------------------------------|---------------------------------|
D|--------------------------------|---------------------------------|
A|--7--7--7--7--7p5--7p5--7p5--7--|-7-7-7-7-7-7-7-7-7-7-7-7-7-7-7p5-|
E|--------------------------------|---------------------------------|

G|--------------------------------|---------------------------------|
D|--------------------------------|---------------------------------|
A|--7--7-7-7--7-7-7--7-7-7-7-7p5--|-7--7-7-5h7-7-7p5-7-7-7-7-7--7-7-|
E|--------------------------------|---------------------------------|

G|--------------------------------|---------------------------------|
D|--------------------------------|---------------------------------|
A|--7-7-7-7-7---7-7-7-7-7-7-7-7-7-|-7-7-5h7-7-7--5h7-7-7-5h7-7-7-7--|
E|--------------------------------|---------------------------------|

G|--------------------------------|---------------------------------|
D|--------------------------------|---------------------------------|
A|--------------------------------|---------------------------------|
E|--3---3---3---3-3-3---3---3---3-|--5------------------------------|

G|--------------------------------|---------------------------------|
D|--------------------------------|-----------------5-4-------------|
A|--5h7-7-7-7-7-7-7-7-7-7-7-7-7-7-|----------------------7-5-4------|
E|--------------------------------|--5--5--5--5----------------7-5--|

G|--------------------------------|---------------------------------|
D|--------------------------------|-----------------5-4-------------|
A|-----------------5-4-2-0--------|----------------------7-5-4------|
E|--0--0--0--0-------------4-2-0--|--5--5--5--5----------------7-5--|

G|--------------------------------|
D|--------------------------------|
A|--------------------------------|
E|--0~----------------------------|

[00:53]
G|--------------------------------|---------------------------------|
D|--------------------------------|---------------------------------|
A|--7-7-7-7-7-7-7-7-7-7-7-5h7-5h7-|-7-7-7-7-7-7-7-7-5h7-5h7-5h7-5h7-|
E|--------------------------------|---------------------------------|

G|--------------------------------|---------------------------------|
D|--------------------------------|---------------------------------|
A|--7--7--7--7-7-7-7-7-7-7-7-7-7--|-5h7-7-7-5h7-7-7-5h7-5h7-5h7-5h7-|
E|--------------------------------|---------------------------------|

G|--------------------------------|---------------------------------|
D|--------------------------------|---------------------------------|
A|--7--7--7--7-7-7-7-7-7-7-7-7-7--|-5h-7-7-7-7-7-7-7-5h-7-7-7-7-7-7\|
E|--------------------------------|---------------------------------|

G|--------------------------------|---------------------------------|
D|--------------------------------|---------------------------------|
A|--------------------------------|---------------------------------|
E|-3---3---3---3---3---3---3---3--|--5~-----------------------------|

G|--------------------------------|---------------------------------|
D|--------------------------------|-----------------5-4-------------|
A|--5h7-7-7-7-7-7-7-7-7-7-7-7-7-7-|----------------------7-5-4------|
E|--------------------------------|--5--5--5--5----------------7-5--|

G|--------------------------------|---------------------------------|
D|--------------------------------|-----------------5-4-------------|
A|-----------------5-4-2-0--------|----------------------7-5-4------|
E|--0--0--0--0-------------4-2-0--|--5--5--5--5----------------7-5--|

G|--------------------------------|
D|--------------------------------|
A|--------------------------------|
E|--0~----------------------------|

[01:30]
G|--9--9--9--9--9--9--9--7--------|---------------------------------|
D|--------------------------9---7-|---------------------------------|
A|--------------------------------|--5h7-7-7-7-7-7-7-5----4---------|
E|--------------------------------|----------------------------4----|

G|--------------------------------|---------------------------------|
D|--------------------------------|---------------------------------|
A|--------------------------------|--7-7-7--5h7--7--7-7-7-7-7-5-----|
E|-5---5---5-5-5----5---5---5---5-|-----------------------------7---|

G|--------------------------------|---------------------------------|
D|--------------------------------|---------------------------------|
A|--------------------------------|--7~-----------------------------|
E|--5---5---5---5---5---5---5---5-|---------------------------------|

G|---9--9--9--9--9----------------|---9--9--9--9--9-----------------|
D|--------------------------------|---------------------------------|
A|-----------------7-7-7-7-7-7-7--|-----------------7-7-7-7-7-7-7---|
E|--------------------------------|---------------------------------|

G|---9--9--9--9--9----------------|---------------------------------|
D|--------------------------------|---------------------------------|
A|-----------------7-7-7-7-7-7-7--|---------------------------------|
E|--------------------------------|---3---3---3---3---3---3-2-3-5-7-|

G|--------------------------------|---------------------------------|
D|--------------------------------|---------------------------------|
A|--7--7--7-7-7-5-5h7-5h7-5h7-5h7-|--7---7-7-7---7---7-7-7-7-7-7-7--|
E|--------------------------------|---------------------------------|

G|--------------------------------|---------------------------------|
D|--------------------------------|---------------------------------|
A|-5h7-7-7-5h7-7-7-5h7-5h7-5h7-5h7|--7---7---7---7-7-7-7-7-7-7-7-7--|
E|--------------------------------|---------------------------------|

G|--------------------------------|---------------------------------|
D|--------------------------------|---------------------------------|
A|-5h7-7-7-5h7-5h7-----5h7----5h7-|---------------------------------|
E|-----------------5h7----5h7-----|--3---3---3---3---3---3---3---3--|

G|--------------------------------|
D|--------------------------------|
A|--------------------------------|
E|--5~----------------------------|

[02:18]
G|--------------------------------|---------------------------------|
D|--------------------------------|-----------------5-4-------------|
A|--5h7-7-7-7-7-7-7-7-7-7-7-7-7-7-|----------------------7-5-4------|
E|--------------------------------|--5--5--5--5----------------7-5--|

G|--------------------------------|---------------------------------|
D|--------------------------------|-----------------5-4-------------|
A|-----------------5-4-2-0--------|----------------------7-5-4------|
E|--0--0--0--0-------------4-2-0--|--5--5--5--5----------------7-5--|

G|--------------------------------|
D|--------------------------------|
A|--------------------------------|
E|--0~----------------------------|

[02:33]
G|--------------------------------|---------------------------------|
D|--------------------------------|---------------------------------|
A|--7-7-7-7-7-7-7-7-7-7-7-7-7-7-7-|-7-7-7-7-7-7-7-7-5h7-5h7-5h7-5h7-|
E|--------------------------------|---------------------------------|

G|--------------------------------|---------------------------------|
D|--------------------------------|---------------------------------|
A|-7-7-7-7-7-7-7-7-5h7-5h7-5h7-5h7|--7-7-7-7-7-7-7-7-----5h7-----5h7|
E|--------------------------------|------------------5h7-----5h7----|

G|--------------------------------|---------------------------------|
D|--------------------------------|---------------------------------|
A|-7-7-7-7-7-7-7-7-----5h7-----5h7|-7-7-7-7-7-7-7-7------5h7-----5h7|
E|-----------------5h7-----5h7----|------------------5h7-----5h7----|

G|--------------------------------|---------------------------------|
D|--------------------------------|---------------------------------|
A|-7-7-7-7-7-7-7-7-----5h7-----5h7|-7-7-7-7-7-7-7-7------5h7-----5h7|
E|-----------------5h7-----5h7----|------------------5h7-----5h7----|

G|--------------------------------|---------------------------------|
D|--------------------------------|---------------------------------|
A|--------------------------------|---------------------------------|
E|--0~----------------------------|---------------------------------|

[03:09]
G|--------------------------------|---------------------------------|
D|------------14~-----------------|---------------------------------|
A|--------------------------------|-7-7-7-7-7-7-7-7-5h7-7-7-7p5-5h7-|
E|--0~---------------0~-----------|---------------------------------|

G|--------------------------------|---------------------------------|
D|--------------------------------|---------------------------------|
A|-7-7-7-7-7p5-5-5-5h7-5h7-5h7-5h7|-----5h-7-----5h-7-7-7-7-7-7-5-7-|
E|--------------------------------|-5h7------5h7--------------------|

G|--------------------------------|-------------------7h9-9---------|
D|--------------------------------|------------6/7h9----------------|
A|-7-7-7-7-7-7-7-7-5h7-5h7-5h7-5h7|-7-7-7-7-7---------------7p5-5h7-|
E|--------------------------------|---------------------------------|

G|-------------------7h9-9--------|-------------------7h9-9---------|
D|------------6/7h9---------------|------------6/7h9----------------|
A|-7-7-7-7-7---------------7p5-5h7|-7-7-7-7-7---------------7p5-5h7-|
E|--------------------------------|---------------------------------|

G|-----------------------7---9----|-------------------7-9p7-9p7-9p7-|
D|------------------6-9-----------|---------------6-9---------------|
A|--7-7-7-7-7-7-7-----------------|-7-7-7-7-7-7-7-------------------|
E|--------------------------------|---------------------------------|

[Fading Out]
G|-9p7-9p7-9p7-9p7-9p7-9p7-9p7-9p7-|
D|---------------------------------|
A|---------------------------------|
E|---------------------------------|

[Fading In]
G|--------------------------7h-9-|--------------------------7h-9-|
D|---------------------5h-7------|---------------------5h-7------|
A|-7-7-7-7-7-7-7-7-7-7-----------|-7-7-7-7-7-7-7-7-7-7-----------|
E|-------------------------------|-------------------------------|

G|--------------------------7h-9-|--------------------------7h-9-|
D|---------------------5h-7------|---------------------5h-7------|
A|-7-7-7-7-7-7-7-7-7-7-----------|-7-7-7-7-7-7-7-7-7-7-----------|
E|-------------------------------|-------------------------------|

G|--------------------------7h-9-|-------------------------------|
D|---------------------5h-7------|-------------------------------|
A|-7-7-7-7-7-7-7-7-7-7-----------|-7-7-7-7-7-7-7-7---------------|
E|-------------------------------|------------------9--7----5-4--|

G|-------------------------------|-------------------------------|
D|-------------------------------|-------------------------------|
A|-------------------------------|----7\-----7\-----7\-----7\----|
E|--2-0--2-0--2-0-----2-0--2-----|-------------------------------|

G|-------------------------------|----------9\-------------------|
D|-------------------------------|-------------------------------|
A|--7--7--7--7--7--7--7--7--7--7-|-------------------------------|
E|-------------------------------|--0~----------9\------0-------0|

24. Long, Long, Long (George Harrison)
In 3/4 metre
[Guitar Intro]
e|--------------|-------|--------------|---1--1-1-|-0-0--0-0-|
B|--------------|-------|--------------|---1--1-1-|-1-1--1-1-|
G|--------------|-----0-|--------------|---2--2-2-|-0-0--0-0-|
D|---------3-h5-|---0-h-|---------3-h5-|-3-3--3-3-|-2-2--2-2-|
A|-----3-h5-----|-1-h-h-|-----3-h5-----|---x--x-x-|-3-3--3-3-|
E|-3-h6---------|-------|-3-h6---------|---x--x-x-|-x-x--x-x-|

[Verse 1]
   It's been a  long,   long,       long time.
G|-------------|-------|-------|--------|-------|-------|-------|
D|-------------|-------|-------|--------|-3-----|-------|-3-----|
A|-------------|-1-----|-0-----|------3-|-------|-1-----|-------|
E|-------------|-------|-------|-3------|-------|-------|-------|

  How could I ever have lost   you?                      When I    loved  you.
G|----------|----------|------|------|-------|-------|------|-----|-----|------|
D|----------|----------|------|------|-3-2---|-----2-|-5----|-----|-3---|------|
A|-3--------|----------|------|-5----|-----5-|-3-5---|------|-5---|-----|-3----| hold 2 bars
E|----------|-3--------|-3----|------|-------|-------|------|-----|-----|------|

[Verse 2]
   It took a long,   long,   long      time.                Now I'm so
G|----------|-------|-------|--------|------|-----|-------|------------|
D|----------|-------|-------|--------|-3----|-----|-3-----|------------|
A|----------|-1-----|-0-----|------3-|------|-1---|---0-1-|-3----------|
E|----------|-------|-------|-3------|------|-----|-------|------------|

    happy I found   you.                       How I      love     you.
G|---------|-------|-------|-------|-------|------|------|-------|-----|
D|---------|-------|-----5-|-3-2---|-----2-|-5----|----5-|-3-----|-----|
A|---------|-------|-5-----|-----5-|-3-5---|------|-5----|-------|-3---| hold 3 bars
E|--3------|-3-----|-------|-------|-------|------|------|-------|-----|

[Bridge]
   So many tears I was searching.                               So many
G|---------|----------|----------|--------|--------|---------|----------|
D|---------|--3--2----|----------|-5------|--------|-------3-|----------|
A|-1-------|--------5-|-3--------|------5-|--------|-3--5----|-1--------|
E|---------|----------|----------|--------|-3-5--6-|---------|----------|

   tears I was  wast---ting.     Oh,       oh.
G|------------|-------|--------|---------|---------|-5-----|--------|
D|--3----2----|-------|-5------|---------|-------2-|-----5-|--------|
A|----------5-|-3-----|------5-|---------|-3-5-----|-------|-3------|
E|------------|-------|--------|-3-5---6-|---------|-------|--------|

[Verse 3]
   Now I can see    you,    be you.                How can I ever misplace you?
G|----------|------|-----|--------|----|----|----|----------|-------|-----|-----|
D|----------|------|-----|---5----|-3--|----|-3--|----------|-------|-----|-----|
A|----------|-1----|-0---|-----3--|----|-1--|----|-3--------|-------|-----|-5---|
E|----------|------|-----|-3------|----|----|----|----------|-3-----|-3---|-----|

                       How I      want    you.     Oh     I    love     you.
G|-------|-------|-------|-------|-------|-------|------|-----|-------|---------|
D|-3-2---|-----2-|-5-----|-----5-|-3-2---|-----2-|-5----|-----|-3-2---|-----2-3-|
A|-----5-|-3-5---|-------|-5-----|-----5-|-3-5---|------|-5---|-----5-|-3-5-----|
E|-------|-------|-------|-------|-------|-------|------|-----|-------|---------|

       You know that I need you.          Oh    I     love     you.
G|-------|------------|---------|-------|-----|------|-------|-------|------|
D|-5-----|------------|--3--2---|-----2-|-5---|----5-|-3-2---|-----2-|------|
A|-------|-5----------|-------5-|-3-5---|-----|-5----|-----5-|-3-5---|-3----|
E|-------|------------|---------|-------|-----|------|-------|-------|------|

[Side 4
]
25. Revolution 1 (Lennon/McCartney)
G|----------------------------------------------------------------------------|
D|-------------------------------4-7-4-7-----4-7-4-7--------------------------|
A|---4-7-4-7-----4-7-4-7-----4-5-----------5-------------4-7-4-7-----4-7-4-57-|
E|-5-----------5-----------5---------------------------5-----------5----------|

G|----------------------------------------------------------------------------|
D|--------------------------------4-7-4-7-----4-7-4-7-------------------------|
A|----4-7-4-7-----4-7-4-7-----4-5-----------5-------------6-9-6-9-----6-9-6-9-|
E|--5-----------5-----------5---------------------------7-----------7---------|

G|-11-9-----------------9-9-------|-11-9------------------------|----------------|
D|------12-11-9-------------12-11-|------12-11-9------------8---|----------------|
A|--------------12-11-9-----------|--------------12-11-9-11---9-|-9-9-9-7-5-4----|
E|--------------------------------|-----------------------------|-------------7--|

G|-----------------------|-----------------------|-----------------------|---|
D|---------------4-7-4-7-|---------------4-7-4-7-|---------------4-7-4-7-|---|
A|---4-7-4-7---5---------|---4-7-4-7---5---------|---4-7-4-7---5---------|-7-|
E|-5---------------------|-5---------------------|-5---------------------|---|

G|----------------------------------------------------------------------|
D|----------------------------------------------------------------------|
A|----------------------------------------------------------------------|
E|-5--5-5-5--5-5--5-5-5--5-5--5-5-5--5-5--5-5-5--5-5--5-5-5--5-5--5-5-5-|

G|------------------------------------------------------------|
D|------------------------------------------------------------|
A|------------------------------------------------------------|
E|-5-5--5-5-5--5-5--5-5-5--5-5--5-5-5--5-5--5-5-5--5-5--5-5-5-|

G|---------------9-----------11-9-----------------9-9-------|-11-9---------|
D|-----6-9-6-9-----6-9-6-9--------12-11-9-------------12-11-|------12-11-9-|
A|---7------------------------------------12-11-9-----------|--------------|
E|----------------------------------------------------------|--------------|

G|------------------|---------------|-----------------------------------|
D|--------------8---|---------------|---------------4-7-4-7-------------|
A|---12-11-9-11---9-|-9-9-9-7-5-4---|---4-7-4-7---5-------------4-7-4-7-|
E|------------------|-------------7-|-5-----------------------5---------|

G|-------------------------------------|---|
D|-----4-7-4-7-----------------4-7-4-7-|---|
A|---5-------------4-7-4-7---5---------|-7-|
E|---------------5---------------------|---|

G|----------------------------------------------------------------------|
D|----------------------------------------------------------------------|
A|----------------------------------------------------------------------|
E|-5--5-5-5--5-5--5-5-5--5-5--5-5-5--5-5--5-5-5--5-5--5-5-5--5-5--5-5-5-|

G|-----------------------------------------------------------------------|
D|-----------------------------------------------------------------------|
A|-----------------------------------------------------------------------|
E|---5-5---5-5-5---5-5---5-5-5---5-5---5-5-5---5-5---5-5-5---5-5---5-5-5-|

G|--------------------------------|
D|--------------------------------|
A|---7--7-7--7-7--7-7--7-7--5-4---|
E|------------------------------7-|

G|---11-9-----------------9------------|-11-9------------------------|
D|--------12-11-9----------------------|------12-11-9------------8---|
A|----------------12-11-9---7--7-5-4---|--------------12-11-9-11---9-|
E|-----------------------------------7-|-----------------------------|

G|-------------------------|-----------------------------------|
D|-------------------------|---------------4-7-4-7-------------|
A|---9-9-9-7-5-4-----4-----|---4-7-4-7---5-------------4-7-4-7-|
E|---------------5-7---5-7-|-5-----------------------5---------|

G|-------------------------------------|---|
D|-----4-7-4-7-----------------4-7-4-7-|---|
A|---5-------------4-7-4-7---5---------|-7-|
E|---------------5---------------------|---|

G|-----------------------------------------------------------------------|
D|-----------------------------------------------------------------------|
A|-----------------------------------------------------------------------|
E|--5--5-5-5--5-5--5-5-5--5-5--5-5-5--5-5--5-5-5--5-5--5-5-5--5-5--5-5-5-|
[FADE OUT]

26. Honey Pie (Lennon/McCartney)
[VERSE]
G|---------------------------------|---------------------------------|
D|-5-------------------------------|-5-------------------------------|
A|-----------------5---------------|-----------------5---------------|
E|---------------------------------|---------------------------------|

G|---------------------------------|---------------------------------|
D|---------------------------------|---------------------------------|
A|-6-------------------------------|-7-------------------------------|
E|-----------------6---------------|-----------------7---------------|

G|---------------------------------|---------------------------------|
D|-7-------------------------------|---------------------------------|
A|-----------------7-------6-------|-5-------------------------------|
E|---------------------------------|-----------------5---------------|

G|---------------------------------|---------------------------------|
D|-5-------------------------------|---------------------------------|
A|-----------------5---------------|-6---------------5---------------|
E|---------------------------------|---------------------------------|

[VERSE]
G|---------------------------------|---------------------------------|
D|-5-------------------------------|-5-------------------------------|
A|-----------------5---------------|-----------------5---------------|
E|---------------------------------|---------------------------------|

G|---------------------------------|---------------------------------|
D|---------------------------------|---------------------------------|
A|-6-------------------------------|-7-------------------------------|
E|-----------------6---------------|-----------------7---------------|

G|---------------------------------|---------------------------------|
D|-7-------------------------------|---------------------------------|
A|-----------------7-------6-------|-5-------------------------------|
E|---------------------------------|-----------------5---------------|

G|---------------------------------|---------------------------------|
D|-5-------------------------------|---------------------------------|
A|-----------------5---------------|-4---------------3---------------|
E|---------------------------------|---------------------------------|

[BRIDGE]
G|---------------------------------|---------------------------------|
D|-----------------2---------------|-----------------2---------------|
A|-2-------------------------------|-4-------------------------------|
E|---------------------------------|---------------------------------|

G|---------------------------------|-----------------2-------4-------|
D|-----------------5---------------|-5-------5-----------------------|
A|-5-------------------------------|---------------------------------|
E|---------------------------------|---------------------------------|

G|---------------------------------|---------------------------------|
D|---------------------------------|---------------------------------|
A|-3-----------------------3-------|-2-----------------------2-------|
E|---------------------------------|---------------------------------|

G|---------------------------------|---------------------------------|
D|---------------------------------|-----2-------4-------------------|
A|---------------------------------|-5-------------------------------|
E|-5-------------------------------|---------------------------------|

[VERSE]
G|---------------------------------|---------------------------------|
D|-5-------------------------------|-5-------------------------------|
A|-----------------5---------------|-----------------5---------------|
E|---------------------------------|---------------------------------|

G|---------------------------------|---------------------------------|
D|---------------------------------|---------------------------------|
A|-6-------------------------------|-7-------------------------------|
E|-----------------6---------------|-----------------7---------------|

G|---------------------------------|---------------------------------|
D|-7-------------------------------|---------------------------------|
A|-----------------7-------6-------|-5-------------------------------|
E|---------------------------------|-----------------5---------------|

G|---------------------------------|---------------------------------|
D|-5-------------------------------|---------------------------------|
A|-----------------5---------------|-6---------------5---------------|
E|---------------------------------|---------------------------------|

[GUITAR SOLO]
G|---------------------------------|---------------------------------|
D|-5-------------------------------|-5-------------------------------|
A|-----------------5---------------|-----------------5---------------|
E|---------------------------------|---------------------------------|

G|---------------------------------|---------------------------------|
D|---------------------------------|---------------------------------|
A|-6-----------6---6---------------|-7-----------7---7---------------|
E|---------------------------------|---------------------------------|

G|---------------------------------|---------------------------------|
D|-7-------------------------------|---------------------------------|
A|-----------------7-------6-------|-5-------------------------------|
E|---------------------------------|-----------------5---------------|

G|---------------------------------|---------------------------------|
D|-5-------------------------------|---------------------------------|
A|-----------------5---------------|-6-----------5-------------------|
E|---------------------------------|---------------------------------|

[PIANO SOLO]
G|---------------------------------|---------------------------------|
D|-5-------------------------------|-5-------------------------------|
A|-----------------5---------------|-----------------5---------------|
E|---------------------------------|---------------------------------|

G|---------------------------------|---------------------------------|
D|---------------------------------|---------------------------------|
A|-6-----------6-------------------|-7-----------7-------------------|
E|---------------------------------|---------------------------------|

G|---------------------------------|---------------------------------|
D|-7-------------------------------|---------------------------------|
A|-----------------7-------6-------|-5-------------------------------|
E|---------------------------------|-----------------5---------------|

G|---------------------------------|---------------------------------|
D|-5-------------------------------|---------------------------------|
A|-----------------5---------------|-4---------------3---------------|
E|---------------------------------|---------------------------------|

[BRIDGE]
G|---------------------------------|---------------------------------|
D|-----------------2---------------|-----------------2---------------|
A|-2-------------------------------|-4-------------------------------|
E|---------------------------------|---------------------------------|

G|---------------------------------|-----------------2-------4-------|
D|-----------------5---------------|-5-------5-----------------------|
A|-5-------------------------------|---------------------------------|
E|---------------------------------|---------------------------------|

G|---------------------------------|---------------------------------|
D|---------------------------------|---------------------------------|
A|-3-----------------------3-------|-2-----------------------2-------|
E|---------------------------------|---------------------------------|

G|---------------------------------|---------------------------------|
D|---------------------------------|-----2-------4-------------------|
A|---------------------------------|-5-------------------------------|
E|-5-------------------------------|---------------------------------|

[VERSE]
G|---------------------------------|---------------------------------|
D|-5-------------------------------|-5-------------------------------|
A|-----------------5---------------|-----------------5---------------|
E|---------------------------------|---------------------------------|

G|---------------------------------|---------------------------------|
D|---------------------------------|---------------------------------|
A|-6-------------------------------|-7-------------------------------|
E|-----------------6---------------|-----------------7---------------|

G|---------------------------------|---------------------------------|
D|-7-------------------------------|---------------------------------|
A|-----------------7-------6-------|-5-------------------------------|
E|---------------------------------|-----------------5---------------|

G|---------------------------------|---------------------------------|
D|-5-------------------------------|---------------------------------|
A|-----------------5---------------|-6---------------5---------------|
E|---------------------------------|---------------------------------|

[OUTRO]
G|---------------------------------|---------------------------------|
D|-5-------------------------------|-5-------------------------------|
A|-----------------5---------------|-----------------5---------------|
E|---------------------------------|---------------------------------|

G|---------------------------------|---------------------------------|
D|---------------------------------|---------------------------------|
A|-6-----------6-------------------|-7-----------7-------------------|
E|---------------------------------|---------------------------------|

G|---------------------------------|---------------------------------|
D|-7-------------------------------|---------------------------------|
A|-----------------7-------6-------|-5-------------------------------|
E|---------------------------------|-----------------5---------------|

G|---------------------------------|---------------------------------|
D|-5-------------------------------|---------------------------------|
A|-----------------5---------------|-6-----------5-------------------|
E|---------------------------------|---------------------------------|

G|---------------------------------|
D|-5-------------------------------|
A|---------------------------------|
E|---------------------------------|

27. Savoy Truffle (George Harrison)
[Intro]
   Q=100
  4/4                          7/8             6/8      4/4
   Gtr I
   W          E E E E E E E E   E E E E E E E   W        E E E E E E E E
G|----------|-----------------|---------------|--------|-----------------|
D|----------|-----------------|---------------|--------|-----------------|
A|----------|-7-7-7-------5-6-|-7-7-7---5-6-7-|--------|-7-7-7-------5-6-|
E|----------|-----------7-----|-------7-------|--------|-------0-7-7-----|

[Pre-Chorus]
     $
     E E E E E E E E   +Q   E E E E Q    E E E E E E E E   E E E E E E E E
G||------------------|-----------------|-----------------|-----------------|
D||o-----------------|-----------------|-----------------|---------------7-|
A||o-7-7-7---5-6-7-7-|-(7)--7---5-6-7--|-9-9-9-------7-8-|-9-9-9---7-8-9---|
E||--------7---------|--------7--------|-------0-9-9-----|-------9---------|

   +E  E E E E E E E   +E  E E E E E E E   E E E E E E E E   E E E E E E E E
G|-------------------|-------------------|-----------------|-----------------|
D|-(7)-7-5-5-4-4-----|-------------------|-----------------|-5-5-2-2---------|
A|---------------7-5-|-(5)-5-4-4-2-2-----|---------5-5-7-7-|---------5-5-2-2-|
E|-------------------|---------------5-4-|-3-3-7-7---------|-----------------|

                    [Chorus]
   E E E E E E E E    E E E E E E E E   E E E E E E E E   E E E E E E E E
G|-------------1-2-||---2-1-1---------|-----------------|------------------|
D|-----1-1-4-4-----||---------4-------|-----------------|------------------|
A|-2-2-------------||-------------5-6-|-7-7-7---5-7-7-5-|-7-7-7-5-7-7-5-5--|
E|-----------------||-----------7-----|-------7---------|------------------|

[To Coda]
   E E E E E E E E    E E E E H
G|------------------|--------------|
D|------------------|-------5------|
A|------------------|-----5--------|
E|-8-8-7-7-5-5-3-3--|-3-7----------|

                    7/8             6/8
   E E E E E E E E   E E E E E E E   E E E Q.
G|-----------------|---------------|-------------|
D|-----------------|---------------|-------------|
A|-7-7-7-------5-6-|-7-7-7---5-6-7-|-7-7---------|
E|-----------7-----|-------7-------|-------------|

[Verse 1]
                      2.
  4/4
   E E E E E E E E     E E E E H       E E E E E E E E
G|------------------||--------------||-----------------|
D|-----------------o||-------5------||-----------------|
A|-7-7-7-------5-6-o||---2-5--------||-7-7-5-5-4-4-----|
E|-------0-7-7------||-3------------||-------------7-7-|

   E E E E E E S S E   Q.   E E E +E  E    Q.   E +Q   Q  E S S E S S E E E E
G|-------------------|------------------|-------------------------------------|
D|-----------------7-|------------------|-------------------------------------|
A|---------7-7-7s9---|----------7-(7)-9-|-10----9-(9)-----7-7-7-5-5-5-4-4-----|
E|-5-5-7-9-----------|-5----7s9---------|---------------------------------7-7-|

   E S S S S E +E  E S S E   Q.   E E E +E  E
G|-------------------------|------------------|
D|-----------------------7-|------------------|
A|-----------7-(7)-7-7s9---|----------7-(7)-7-|
E|-5-5-5-7s9---------------|-5----7s9---------|

[Guitar Solo]
    Q.   E +Q   Q     E E E E E E E S S
G|-----------------||---------------------|
D|-----------------||---------------------|
A|-10----9-(9)-----||-7-7-7-7-7-7-7-7-5---|
E|-----------------||---------------------|

   E E E E E E E E   E E E E E E E E   E E E E E E E E   E E E E E E E E
G|-----------------|-----------------|-----------------|------------------|
D|-----------------|-----------------|-----------------|------------------|
A|-7---------------|-7-7-7-------5-6-|-7-7-7-------7-8-|-9-9-9-------7-8--|
E|---0-0-0-0-0-0-0-|-------0-7-7-----|-------0-7-0-----|-------0-9-9------|

   E E E E E E E E   +E  E E E E E E E   E E E E E E E E   E E E E E E E E
G|-----------------|-------------------|-----------------|------------------|
D|---------------7-|-(7)-7-5-5---------|-----------------|-------------2-2--|
A|-9-9-7---7-8-9---|-----------9-9-7-7-|-5-5-------------|-----2-2-5-5------|
E|-------9---------|-------------------|-----9-9-7-7-5-4-|-3-3--------------|

                                                        [Chorus]
   E E E E E E E E   E E E E E E E E   E E E E E E E E    E E E E E E E E
G|-----------------|-----------------|-----------------||------------------|
D|-5-5-2-2---------|-----1-1-4-4-6-7-|-9-8-7-6---------||------------------|
A|---------5-5-2-2-|-2-2-------------|---------9-8-7-6-||-7-7-7---5-7-7----|
E|-----------------|-----------------|-----------------||-------7-------7--|

                                                      [2nd Verse]
   E E E E E E E E   E E E E E E E E   E E E E H       E E E E E E E E
G|-----------------|-----------------|--------------||------------------|
D|-----------------|-----------------|-------5------||------------------|
A|-7-7-7-5-7-7-5-5-|-3-3-2-2---------|-----5--------||-7-7-5-5-4-4------|
E|-----------------|---------5-5-3-3-|-3-7----------||-------------7-7--|

   E E E E E E S S E   Q.   E E E +E  E  Q.   E +Q   Q  E S S E S S E E E E
G|-------------------|-------------------------------------------------------|
D|-----------------7-|-------------------------------------------------------|
A|---------7-7-7s9---|----------7-(7)-9-10----9-(9)-----7-7-7-5-5-5-4-4------|
E|-5-5-7-9-----------|-5----7s9-----------------------------------------7-7--|

   E S S S S E +E  E S S E   Q.   E E E +E  E
G|-------------------------|------------------|
D|-----------------------7-|------------------|
A|-----------7-(7)-7-7s9---|----------7-(7)-7-|
E|-5-5-5-7s9---------------|-5----7s9---------|

    Q.   E +Q   Q    E E E E E E E E
G|-----------------|-----------------|
D|-----------------|-----------------|
A|-10----9-(9)-----|-7-7-7-7-7-7-7-7-|
E|-----------------|-----------------|

[Outro]
       D.S. al Coda &
   E E E E E E E E     E E E E H      E E E E E E E E
G|------------------||--------------|-----------------|
D|------------------||-------5------|-----------------|
A|-7----------------||---2-5--------|-7-7-7-7-7-7-7-7-|
E|---0-0-0-0-0-0-0--||-3------------|-----------------|

   E E E E E E E E   E E E E E E E E   E E E E H
G|-----------------|-----------------|--------------*|
D|-----------------|-----------------|-------5------*|
A|-7-7-7-7-7-5-5-3-|-3-3-2-2---------|---2-5--------*|
E|-----------------|---------5-5-3-3-|-3------------*|

28. Cry Baby Cry (Lennon/McCartney)
[INTRO CHORUS]
   4/4
G|---------------------------------|---------------------------------|
D|---------------------------------|---------------------------------|
A|---------------------------------|---------------------------------|
E|---------------------------------|---------------------------------|

                                    2/4
G|---------------------------------|-----------------|
D|---------------------------------|-----------------|
A|---------------------------------|-----------------|
E|---------------------------------|-----------------|

[VERSE]
   4/4
G|---------------------------------|---------------------------------|
D|---------------------------------|---------------------------------|
A|---------------------------------|---------------------------------|
E|---------------------------------|---------------------------------|

G|---------------------------------|---------------------------------|
D|---------------------------------|---------------------------------|
A|---------------------------------|---------------------------------|
E|---------------------------------|---------------------------------|

                                    2/4
G|---------------------------------|-----------------|
D|---------------------------------|-----------------|
A|---------------------------------|-----------------|
E|---------------------------------|-----------------|

  4/4
G|---------------------------------|---------------------------------|
D|---------------------------------|---------------------------------|
A|---------------------------------|---------------------------------|
E|---------------------------------|---------------------------------|

G|---------------------------------|---------------------------------|
D|---------------------------------|---------------------------------|
A|---------------------------------|---------------------------------|
E|---------------------------------|---------------------------------|

[VERSE]
G|---------------------------------|---------------------------------|
D|-----------5---------------5-----|-----------5---------------5-----|
A|-7---7-------7---6---6-------6---|-5---5-------5---4---4-------4---|
E|---------------------------------|---------------------------------|

G|---------------------------------|---------------------------------|
D|---------------------------------|-----------5---------------5-----|
A|-3-------1-----------2---2---5---|-7---7-------7---6---6-------6---|
E|---------------3-3-5-------------|---------------------------------|

                                    2/4
G|-------4-------------4-----------|-----------------|
D|-----------5-----------5---------|-----------------|
A|-5---5-------5---4---------4-4---|-3---3-1-1---1---|
E|---------------------------------|---------------3-|

  4/4
G|---------------------------------|---------------------------------|
D|-----------------------------2---|-3---2---3---4---5---2-----------|
A|---------2-----------2---3-------|-------------------------5-2-----|
E|-3---5-------3---5---------------|-----------------------------3---|

G|-----------4-----2---2-----------|---------------------------------|
D|-2---2-----------------------5---|-3---2---3---4---5-2-------------|
A|---------------------------------|---------------------5-2---------|
E|---------------------------------|-------------------------3-------|

[VERSE]
G|---------------------------------|---------------------------------|
D|---------------------------------|---------------------------------|
A|-7---------------6---------------|-5---------------4---------------|
E|---------------------------------|---------------------------------|

G|---------------------------------|---------------------------------|
D|---------------------------------|---------------------------------|
A|-3---3---1---1-----------2---5---|-7---------------6---------------|
E|-----------------3---5-----------|---------------------------------|

                                    2/4
G|---------------------------------|-----------------|
D|---------------------------------|-----------------|
A|-5---5---5---5---4---4---4---4---|-3---3---1-------|
E|---------------------------------|-------------5---|

  4/4
G|---------------------------------|---------------------------------|
D|-----------------------------2---|-3---2---3---4---5---2-----------|
A|---------2-----------2---3-------|-------------------------5---2---|
E|-3---5-------3---5---------------|---------------------------------|

G|-----------4-----2---2-----------|---------------------------------|
D|-2---2-------2---------------5---|-3---2---3---4---5-2-------------|
A|---------------------------------|---------------------5---2-------|
E|---------------------------------|-----------------------------3---|

[VERSE]
G|---------9\--------------9\------|---------9\----------------------|
D|---------------------------------|---------------------------------|
A|-7---7-----------6---6-----------|-5---5-----------4---4---4-------|
E|---------------------------------|---------------------------------|

G|---------------------------------|---------9\--------------9\------|
D|---------------------------------|---------------------------------|
A|-3---3---1---1-----------2---5---|-7---------------6---6-----------|
E|-----------------3---5-----------|---------------------------------|

                                    2/4
G|---------9\------6---6\----------|-----------------|
D|---------------------------------|-----------------|
A|-5---5---------------------------|-3---3-----------|
E|---------------------------------|---------0---3---|

  4/4
G|---------------------------------|---------------------------------|
D|-----------------------------2---|-3---2---3---4---5---5-2---------|
A|---------2-----------2---3-------|---------------------------5-2---|
E|-3---5-------3---5---------------|---------------------------------|

G|-----------4\----2---2-----------|
D|-2---2-------------------5---5---|
A|---------------------------------|
E|---------------------------------|

                                    2/4
G|---------------------------------|-----------------|
D|-3---3-2-3---4---5-2-------------|-----------------|
A|---------------------5---2-------|-----------------|
E|-----------------------------3---|-5---5---5-------|

[OUTRO]
  4/4
G|---------------------------------|---------4-------2---2-----------|
D|-3---2---3---4---5---2-----------|-2---2-------2-----------5---5---|
A|-------------------------5-2-----|---------------------------------|
E|-----------------------------3---|---------------------------------|

                                    2/4
G|---------------------------------|-----------------|
D|-3---2---3---4-5---2-------------|-----------------|
A|---------------------5---2-------|---------2---3---|
E|-----------------------------3---|-5---5-----------|

  4/4
G|---------------------------------|---------4-------2---2-----------|
D|-3---3---2---3-5---2-------------|-2---2-------2-----------5---5---|
A|---------------------5---2-------|---------------------------------|
E|-----------------------------3---|---------------------------------|

G|---------------------------------|
D|-3---2---3---5---2---------------|
A|---------------------------------|
E|---------------------------------|

(Can You Take Me Back)
G|-10----------------------8-------|-10----------------------8-------|
D|-----------------10--------------|-----------------10--------------|
A|---------------------------------|---------------------------------|
E|---------------------------------|---------------------------------|

G|-10----------------------8-------|-10----------------------8-------|
D|-----------------10--------------|-----------------10--------------|
A|---------------------------------|---------------------------------|
E|---------------------------------|---------------------------------|

G|-10----------------------8-------|-10----------------------8-------|
D|-----------------10--------------|-----------------10--------------|
A|---------------------------------|---------------------------------|
E|---------------------------------|---------------------------------|

G|-10------------------------------|-10------------------------------|
D|-----------------10--------------|-----------------10--------------|
A|---------------------------------|---------------------------------|
E|---------------------------------|---------------------------------|

G|-10------------------------------|-10------------------------------|
D|-----------------10--------------|-----------------10--------------|
A|---------------------------------|---------------------------------|
E|---------------------------------|---------------------------------|

G|-10------------------------------|-10------------------------------|
D|-----------------10--------------|-----------------10--------------|
A|---------------------------------|---------------------------------|
E|---------------------------------|---------------------------------|

G|-10------------------------------|-10----------------------8-------|
D|-----------------10--------------|-----------------10--------------|
A|---------------------------------|---------------------------------|
E|---------------------------------|---------------------------------|

G|-10------------------------------|-10------------------------------|
D|-----------------10--------------|-----------------10--------------|
A|---------------------------------|---------------------------------|
E|---------------------------------|---------------------------------|

G|-10------------------------------|-10------------------------------|
D|-----------------10--------------|-----------------10--------------|
A|---------------------------------|---------------------------------|
E|---------------------------------|---------------------------------|
                                                             FADE OUT

29. Revolution 9
Weird musique concrete avante garde thing, so no bass again.
30. Good Night (Lennon/McCartney)
   Q=90
  4/4
   Gtr I
   W          Q  Q  Q  Q    Q  Q  Q  Q    Q  Q  Q  Q
G|----------|-------------|-------------|--------------|
D|----------|----5-----5--|----5-----5--|----5-----5---|
A|----------|-------------|-------------|--------------|
E|----------|-------------|-------------|--------------|

   Q  Q  Q  Q    W          W          W
G|-------------|----------|----------|------|
D|----5-----5--|----------|----------|------|
A|-------------|----------|----------|------|
E|-------------|----------|----------|------|

   W          W          W          W
G|----------|----------|----------|------|
D|----------|----------|----------|------|
A|----------|----------|----------|------|
E|----------|----------|----------|------|

   W          W          H    Q  E E   Q  Q  Q  Q
G|----------|----------|-------------|-------------|
D|----------|----------|-------------|-5--5--5--5--|
A|----------|----------|---------7-5-|-------------|
E|----------|----------|-------------|-------------|

   Q  Q  Q  Q    Q  Q  Q  Q    Q  Q  Q  Q    Q  Q  Q  Q
G|-------------|-------------|-------------|-------4--4--|
D|-5--5--5--5--|-5--5--5--5--|-5--5--5--5--|-5--5--------|
A|-------------|-------------|-------------|-------------|
E|-------------|-------------|-------------|-------------|

   Q  Q  Q  Q    Q  Q  Q  Q    Q  Q  Q  E E   Q  Q  E  E Q
G|-2--2--2--2--|-4--4--2--2--|-0--0---------|-0--0--4-11----|
D|-------------|-------------|-------4--2-0-|------------9--|
A|-------------|-------------|--------------|---------------|
E|-------------|-------------|--------------|---------------|

   E E E E E E E E   Q  Q  Q  Q    Q  Q  Q  Q    E E Q  E E Q
G|---9---9---9---9-|-------------|-------------|---------------|
D|-7---7---7---7---|-9--9--7--7--|-5--5--4-----|-5-5----5-5----|
A|-----------------|-------------|----------5--|-----5------7--|
E|-----------------|-------------|-------------|---------------|

   E E Q  E E Q    E E Q  E E Q    E E Q  Q  Q    W
G|---------------|---------------|--------------|------|
D|-5-5-4--5-5----|-5-5----5-5----|-5-5----5-----|------|
A|------------7--|-----5------7--|-----5-----3--|------|
E|---------------|---------------|--------------|------|

   W          W          W          Q  Q  Q  Q
G|----------|----------|----------|-------4--4--|
D|----------|----------|----------|-5--5--------|
A|----------|----------|----------|-------------|
E|----------|----------|----------|-------------|

   Q  Q  Q  Q    Q  Q  Q  Q    Q  Q  Q  E E   Q  Q  E  E Q
G|-2--2--2--2--|-4--4--2--2--|-0--0---------|-0--0--4-11----|
D|-------------|-------------|-------4--2-0-|------------9--|
A|-------------|-------------|--------------|---------------|
E|-------------|-------------|--------------|---------------|

   E E E E E E E E   Q  Q  Q  Q    Q  Q  Q  Q    E E Q  E E Q
G|---9---9---9---9-|-------------|-------------|---------------|
D|-7---7---7---7---|-9--9--7--7--|-5--5--4-----|-5-5----5-5----|
A|-----------------|-------------|----------5--|-----5------7--|
E|-----------------|-------------|-------------|---------------|

   Q  Q  Q  Q    Q  Q  Q  Q    Q  Q  Q  Q    Q  Q  Q  Q
G|-------------|-------------|-------------|-------------|
D|-5--5--5--5--|-5--5--5--5--|-5--5--5--5--|----5-----5--|
A|-------------|-------------|-------------|-------------|
E|-------------|-------------|-------------|-------------|

   Q  Q  Q  Q
G|---------------*|
D|----5----------*|
A|----------5----*|
E|---------------*|

Courtesy of Camster2909, rolls4food, bass69, Justin Benz, WildIrish, Mrcozman,chrkr, bruce 51, truti

            
            
Suggest correction
Creating personal tab
Creating personal tab
You can edit any tab online and save it as your Personal.

You can edit, replace or remove any tab part or add personal notes – all changes will be seen only by you.

Personal tabs can be accessed anytime from any device, even offline.
Learn more »
Give kudos to tab author, rate the tab!
1 2 3 4 5
comments
print report bad tab
guest
You may want to rate the tab now too:
select rating
Wanna post a correction for this tab? Suggest correction