Oops, an error
Loading. Please wait.

Within You Without You tab

version 2
version 2

Whole song

Interactive

2,147 views 1 this week
1 commentread comment
1 2 3 4 5
1 last vote to show rating
add to favorites
×
Save as Personal and add changes to this tab that will be seen only by you. Learn more ›
×
You can save this tab as Personal to edit and correct it or add notes. All changes will be seen only by you. Learn more »
launch autoscroll
font size
0
reset
how to read this tab
guitar tuner
edit
Autoscroll
slow
fast
+/-
esc
set tempo
stop
Author
Difficulty
Within You / Without You

 
We were talking-about the space between us all
And the people-who hide themselves behind a wall of illusion
Never glimpse the truth-then it's far too late-when they pass away.
We were talking-about the love we all could share-when we find it
To try our best to hold it there-with our love
With our love-we could save the world-if they only knew.
Try to realize it's all within yourself
No-one else can make you change
And to see you're really only very small,
And life flows ON within you and without you.


 

E-------------------------------------------------------------------------|
B---6-7-9--12~~~-------12-11---6-9-4-9-7--6~------6-7-9--12~~~------12-11-|
G-------------------------------------------------------------------------|
D-------------------------------------------------------------------------|
A-------------------------------------------------------------------------|
E-------------------------------------------------------------------------|

E-------------------------------------------------------------------------|
B---6-9-4-9-7-6~~~---6-7-9--6---6-7-/-11-9-11~~~---6-7-9--12-14~~~~~------|
G-------------------------------------------------------------------------|
D-------------------------------------------------------------------------|
A-------------------------------------------------------------------------|
E-------------------------------------------------------------------------|

E-------------------------------------------------------------------------|
B---9-14-12-9-7/6/7/6--7/9-6----------------------------------------------|
G-------------------------------------------------------------------------|
D-------------------------------------------------------------------------|
A-------------------------------------------------------------------------|
E-------------------------------------------------------------------------|

E--------------------------------------------------------------------------|
B--6-7-9--12~~--12-11--6-9-4-9-7--6~----6-7-9--12~~~--12-11--6-9-4-9-7--6~-|
G--------------------------------------------------------------------------|
D--------------------------------------------------------------------------|
A--------------------------------------------------------------------------|
E--------------------------------------------------------------------------|

E-------------------------------------------------------12-14/12/14-12/14~-|
B----6-7--9---6-7--9--12~--6-7--9--12-12/14~~---9-12-14--------------------|
G--------------------------------------------------------------------------|
D--------------------------------------------------------------------------|
A--------------------------------------------------------------------------|
E--------------------------------------------------------------------------|

E---14-12------------------------------------------------------------------|
B----------14-12~-9-12~-9---12~--------------------------------------------|
G----------------~---~-----------------------------------------------------|
D--------------------------------------------------------------------------|
A--------------------------------------------------------------------------|
E--------------------------------------------------------------------------|

E---------------------------------------------------------------------------|
B—9--11--12—-11—-14--11--12--7--11--9--6—-9--7--4—-9--7--6------------------|
G---------------------------------------------------------------------------|
D---------------------------------------------------------------------------|
A---------------------------------------------------------------------------|
E---------------------------------------------------------------------------|

E--------------------------------------------------------------------------|
B---9—-11-—12--11--14--11--12--7--11—-9--6----12-11--7--11-9--6---9-7-6-4--|
G--------------------------------------------------------------------------|
D--------------------------------------------------------------------------|
A--------------------------------------------------------------------------|
E--------------------------------------------------------------------------|

            
            
Suggest correction
Creating personal tab
Creating personal tab
You can edit any tab online and save it as your Personal.

You can edit, replace or remove any tab part or add personal notes – all changes will be seen only by you.

Personal tabs can be accessed anytime from any device, even offline.
Learn more »
Give kudos to tab author, rate the tab!
1 2 3 4 5
comments
print report bad tab
1 comment total.
0 reply
mabrown2 20 Sep 24, 2015 09:01 AM

Awesome!! THX

guest
You may want to rate the tab now too:
select rating
Wanna post a correction for this tab? Suggest correction