Oops, an error
Loading. Please wait.
We have an official You Never Give Me Your Money tab made by UG professional guitarists. Check out the tab »
×
409 views 3 this week
1 commentread comment
1 2 3 4 5
2 more votes to show rating
add to favorites
×
Save as Personal and add changes to this tab that will be seen only by you. Learn more ›
×
You can save this tab as Personal to edit and correct it or add notes. All changes will be seen only by you. Learn more »
launch autoscroll
font size
0
reset
how to read this tab
guitar tuner
edit
Autoscroll
slow
fast
+/-
esc
set tempo
stop
Author
Difficulty
-------------------------------------------------------------------------------
                   YOU NEVER GIVE ME YOUR MONEY - The Beatles
-------------------------------------------------------------------------------
Tabbed by: Dom
E-mail: dominic.caudill1@gmail.com

Tuning: Standard
    
Intro:
   Am7                    Dm        G                      C
e|-0-0-0-0-0-0-0-0-0-0-0--1----1----3-3-3-3-3-3-3-3-3-3-3--0-0-0-0-0-0-------|     Play this rhythm 3 times:
B|-1-1-1-1-1-1-1-1-1-1-1--3----3----3-3-3-3-3-3-3-3-3-3-3--1-1-1-1-1-1-------|     First in the intro, w/out 
G|-0-0-0-0-0-0-0-0-0-0-0--2----2----0-0-0-0-0-0-0-0-0-0-0--0-0-0-0-0-0-------|     vocals, then with vocals
D|-2-2-2-2-2-2-2-2-2-2-2--0----0----0-0-0-0-0-0-0-0-0-0-0--2-2-2-2-2-2-------|     listed, then the variation
A|-0-0-0-0-0-0-0-0-0-0-0--X----X----2-2-2-2-2-2-2-2-2-2-2--3-3-3-3-3-3-------|     in vocals. All are the same
E|-X-X-X-X-X-X-X-X-X-X-X--X----X----3-3-3-3-3-3-3-3-3-3-3--X-X-X-X-X-X-------|     rhythm & chords.
 (you never give me your  mo - ney,  you only give me your funny papers

   Fmaj7                 Bm7b5  E7        Am (let ring untill repeat)
e|-0-0-0-0-0-0-0-0-0-0-0--0-0-0-0-0-0-----0~---------------------------------|     On the third time playing 
B|-1-1-1-1-1-1-1-1-1-1-1--3-3-3-0-0-0-----1~---------------------------------|     this, play Am twice, then
G|-2-2-2-2-2-2-2-2-2-2-2--2-2-2-1-1-1-----2~---------------------------------|     the transition into the 
D|-3-3-3-3-3-3-3-3-3-3-3--3-3-3-0-0-0-----2~---------------------------------|     next section.
A|-3-3-3-3-3-3-3-3-3-3-3--2-2-2-2-2-2-----0~---------------------------------|
E|-X-X-X-X-X-X-X-X-X-X-X--X-X-X-0-0-0-----X~---------------------------------|
   and in the middle of negotiations, you break down)

(Transition)
   C   G7   C               E7            Am              C7
e|-0-0-1-1--0-0-0-0-0-0-0---0-0-0-0-0-0---0-0-0-0-0-0-0---0-0-0-0-0-0--------|    |
B|-1-1-0-0--1-1-1-1-1-1-1---0-0-0-0-0-0---1-1-1-1-1-1-1---1-1-1-1-1-1--------|    |
G|-0-0-0-0--0-0-0-0-0-0-0---1-1-1-1-1-1---2-2-2-2-2-2-2---3-3-3-3-3-3--------|    |
D|-2-2-0-0--2-2-2-2-2-2-2---0-0-0-0-0-0---2-2-2-2-2-2-2---2-2-2-2-2-2--------|    |
A|-3-3-2-2--3-3-3-3-3-3-3---2-2-2-2-2-2---0-0-0-0-0-0-0---3-3-3-3-3-3--------|     \
E|-X-X-3-3--X-X-X-X-X-X-X---0-0-0-0-0-0---X-X-X-X-X-X-X---X-X-X-X-X-X--------|      \
            Out of college, money spent,  see no future,  pay no rent                \  Repeat twice
                                                                                     /  for this section
   F                  G7             C                                              / 
e|-1-1-1-1-1-1-1-1-1--1-1-1-1-1-1-1--0-0-0-0---------------------------------|     /
B|-1-1-1-1-1-1-1-1-1--0-0-0-0-0-0-0--1-1-1-1---------------------------------|    |
G|-2-2-2-2-2-2-2-2-2--0-0-0-0-0-0-0--0-0-0-0---------------------------------|    |
D|-3-3-3-3-3-3-3-3-3--0-0-0-0-0-0-0--2-2-2-2---------------------------------|    |
A|-3-3-3-3-3-3-3-3-3--2-2-2-2-2-2-2--3-3-3-3---------------------------------|    |
E|-1-1-1-1-1-1-1-1-1--3-3-3-3-3-3-3--X-X-X-X---------------------------------|    |
   All the money's gone, nowhere to go

          Bb                  F                 C
e|--------1-1-1-1-1-1-1-1-1---1-1-1-1-1-1-1-1---0-0-0-0-0-0-0-0--------------|
B|--------3-3-3-3-3-3-3-3-3---1-1-1-1-1-1-1-1---1-1-1-1-1-1-1-1--------------|
G|--------3-3-3-3-3-3-3-3-3---2-2-2-2-2-2-2-2---0-0-0-0-0-0-0-0--------------|
D|--------3-3-3-3-3-3-3-3-3---3-3-3-3-3-3-3-3---2-2-2-2-2-2-2-2--------------|    x5
A|--------1-1-1-1-1-1-1-1-1---3-3-3-3-3-3-3-3---3-3-3-3-3-3-3-3--------------|
E|--------X-X-X-X-X-X-X-X-X---1-1-1-1-1-1-1-1---X-X-X-X-X-X-X-X--------------|
   But oh, that magic feeling        nowhere to go

SOLO (background) 
   C        D7       Eb  G7   C    A    F#  Eb    A    F#(just move up each fret from F#)
e|-0-0-0-0--2-2-2-2--3-3-1-1--0-0--0----X-X--3----0-0--X-X-X-X---------------|
B|-1-1-1-1--1-1-1-1--4-4-0-0--1-1--2----2-2--4----2-2--2/3/4/5---------------|
G|-0-0-0-0--2-2-2-2--3-3-0-0--0-0--2----3-3--3----2-2--3/4/5/6---------------|
D|-2-2-2-2--0-0-0-0--5-5-0-0--2-2--2----4-4--5----2-2--4/5/6/7---------------|
A|-3-3-3-3--X-X-X-X--X-X-2-2--3-3--0----4-4--X----0-0--4/5/6/7---------------|
E|-X-X-X-X--X-X-X-X--X-X-3-3--X-X--X----X-X--X----X-X--X-X-X-X---------------|
                            VERY tricky rhythm here, goes along with solo rhythm

5th Part
   A       B        C   D    A
e|-0-0-0-0-2-2-2-2--0-0-2-2--0-0-0-0-----------------------------------------|
B|-2-2-2-2-4-4-4-4--1-1-3-3--2-2-2-2-----------------------------------------|
G|-2-2-2-2-4-4-4-4--0-0-2-2--2-2-2-2-----------------------------------------|
D|-2-2-2-2-4-4-4-4--2-2-0-0--2-2-2-2-----------------------------------------|
A|-0-0-0-0-X-X-X-X--3-3-X-X--0-0-0-0-----------------------------------------|
E|-X-X-X-X-X-X-X-X--X-X-X-X--X-X-X-X-----------------------------------------|
 One sweet dream...  

  Dm             G      Am             G      A        B
e|1~-------------3~-----5~-------------3~-----0-0-0-0--2-2-------------------|
B|3~-------------3~-----5~-------------3~-----2-2-2-2--4-4-------------------|
G|2~-------------4~-----5~-------------4~-----2-2-2-2--4-4-------------------|
D|0~-------------X------X--------------X------2-2-2-2--4-4-------------------|
A|X--------------X------X--------------X------0-0-0-0--X-X-------------------|
E|X--------------X------X--------------X------X-X-X-X--X-X-------------------|
  Soon we'll be away... Step on... and wipe...One sweet dream
Ending

e|----------------------------------5----------------------------------------|
B|-----------------------0----------2-----------------------------------------|
G|--------------0------0---0------2------------------------------------------|
D|------------2------0----------2--------------------------------------------|
A|----------3------2----------0-----------------------------------------------|
E|---------------------------------------------------------------------------|
  Came true              Today.

   C   Em7 A
e|-0---X---0-------------------------------------------------------------------|
B|-1---0---2-------------------------------------------------------------------|
G|-0---0---2------------------------------------------------------------------|
D|-2---0---2-------------------------------------------------------------------|
A|-3---2---0-------------------------------------------------------------------|
E|-X---X---X-------------------------------------------------------------------|
You can just do these chords here if you don't want to pick.

Thanks for listening. This is my first tab so feedback is welcome.


************************************

| /   slide up
| \   slide down
| h   hammer-on
| p   pull-off
| ~   let ring
| +   harmonic
| x   Mute note
| b   Bend
| pb  Pre-bend
| br  Bend release
| pbr Pre-bend release
| brb Bend release bend

************************************

            
            
Suggest correction
Creating personal tab
Creating personal tab
You can edit any tab online and save it as your Personal.

You can edit, replace or remove any tab part or add personal notes – all changes will be seen only by you.

Personal tabs can be accessed anytime from any device, even offline.
Learn more »
Give kudos to tab author, rate the tab!
1 2 3 4 5
comments
print report bad tab
1 comment total.
0 reply
icrievrytim 10 Mar 12, 2016 01:58 PM

Great tab, might be a little wonky on the solo though.

guest
You may want to rate the tab now too:
select rating
Wanna post a correction for this tab? Suggest correction