Oops, an error
Loading. Please wait.
We have an official Your Mother Should Know tab made by UG professional guitarists. Check out the tab »
×
7,712 views 21 this week
no commentswrite comment
1 2 3 4 5
x 4
add to favorites
×
Save as Personal and add changes to this tab that will be seen only by you. Learn more ›
×
You can save this tab as Personal to edit and correct it or add notes. All changes will be seen only by you. Learn more »
launch autoscroll
font size
0
reset
guitar tuner
edit
Autoscroll
slow
fast
+/-
esc
set tempo
stop
Author
    -----------------------------------------------------------
  
    THE BEATLES - YOUR MOTHER SHOULD KNOW (Lennon & McCartney) 
                  From MAGICAL MISTERY TOUR double EP. Released 
                  on the 8th December 1967.

    -----------------------------------------------------------

    Bass tab by:PJVillanueva






    Oooooooooooooooooooooooooooooooohhh

    Let's all get up and dance to a song
    That was a hit before your mother was born
    Though she was born a long, long time ago
    Your mother should know (Your mother should)
    Your mother should know (know)
    Sing it again.

    Let's all get up and dance to a song
    That was a hit before your mother was born.
    Though she was born a long, long time ago
    Your mother should know (Your mother should)
    Your mother should know (know)

    Lift up your hearts and sing me a song
    That was a hit before your mother was born
    Though she was born a long, long time ago
    Your mother should know (Your mother should)
    Your mother should know (Aaaah)
    Your mother should know (Your mother should)
    Your mother should know (Aaaah)
    Sing it again.

    Da-da-da-da ....
    Though she was born a long, long time ago
    Your mother should know (Your mother should)
    Your mother should know (Yeah)
    Your mother should know (Your mother should)
    Your mother should know (Yeah)
    Your mother should know (Your mother should)
    Your mother should know (Yeah)





    12/8 Time


  G|------- ------- ------- -------|------- ------- ------- ----14\|
  D|-------------------------------|-------------------------------|
  A|-------------------------------|-------------------------------|
  E|-------------------------------|-------------------------------|




  G|------- 14----- 14----- 14--14-|------- 14----- 14----- 14--14\|
  D|7------------------------------|7------------------------------|
  A|-------------------------------|-------------------------------|
  E|-------------------------------|-------------------------------|
    Ooooooooooooooooooooooooooooooooooooooooooooooooooooooooohhhhhh


    00:04
  G|------- ------- ------- ----14\|------- ------- ------- ----14\|
  D|7------------------------------|-------------------------------|
  A|-------------------------------|8------------------------------|
  E|-------------------------------|-------------------------------|
    Let's        get        and  dance   to a    song    that
         all        up                                      was   a


  G|------- ------- ------- ----14\|------- ------- ------- -------|
  D|-------------------------------|-------------------------------|
  A|7------------------------------|5------------------------------|
  E|-------------------------------|-------------------------------|
    hit     before          your    mother  was  born



  G|------- ------- ------- -------|------- ------- ------- -------|
  D|5------------------------------|-------------------------------|
  A|-------------------------------|3---------------2--------------|
  E|-------------------------------|-------------------------------|
    Though  was  born       a    long,   long    time       ago
         she


  G|------- ------- ------- -------|------- ------- ------- -------|
  D|-------------------------------|-------------------------------|
  A|0------------------------------|5------------------------------|
  E|-------------------------------|-------------------------------|
                 your       should
                    mother       know
                                                   (Your

  G|------- ------- ------- -------|------- ------- ------- -------|
  D|5------------------------------|-----------------------------0-|
  A|-------------------------------|3------------------------------|
  E|-------------------------------|-------------------------------|
                 your       should
                    mother       know
    mother  should)                        (Aaaaaaaaaahh)


  G|------- ------- ------- -------|
  D|2------------------------------|
  A|----------------2--------------|
  E|-------------------------------|
    Sing it again



    00:26
  G|------- ------- ------- -------|------- ------- ------- -------|
  D|7-------7-------7-------7------|-------------------------------|
  A|-----------------------------7-|8-------8-------8-------8------|
  E|-------------------------------|-------------------------------|
    Let's        get        and  dance   to a    song    that
         all        up                                      was   a



  G|------- ------- ------- -------|------- ------- ------- -------|
  D|7-------7-------7-------7------|-----------------------------7-|
  A|-------------------------------|5-------5-------5-------5------|
  E|-----------------------------5-|-------------------------------|
    hit     before          your    mother  was  born




  G|------- ------- ------- -------|------- ------- ------- -------|
  D|5-------5-------5----3--2------|-------------------------------|
  A|-----------------------------5-|3-------3----x--2-------2------|
  E|-------------------------------|-------------------------------|
    Though  was  born       a    long,   long    time       ago
         she



  G|------- ------- ------- -------|------- ------- ------- -------|
  D|---------------------2---------|------------------------7----6-|
  A|0-------0-------4-------4------|5-------5-------5----5---------|
  E|-----------------------------x-|-------------------------------|
                 your       should
                    mother       know
                                                   (Your


  G|------- ------- ------- -------|------- ------- ------- -------|
  D|5-------5-------5-------5------|-------------------------------|
  A|-----------------------------5-|3-------3----x--3-------5------|
  E|-------------------------------|-------------------------------|
                 your       should
                    mother       know
    mother  should)                        (Aaaaaaaaaaaaaaaaaaaaaaa



    00:47
  G|------- ------- ------- -------|------- -------|
  D|--------4-------6--------------|4-------6------|
  A|7-----------------------7------|---------------|
  E|-------------------------------|---------------|

    aaahhhhh)


  G|------- ------- ------- -------|------- ------- ------- -------|
  D|7------------------------------|-------------------------------|
  A|------------------------7------|8------------------------------|
  E|-------------------------------|-------------------------------|




  G|------- ------- ------- -------|------- ------- ------- -------|
  D|-------------------------------|5-------5-------5-------5------|
  A/8-------8-------8-------8------|-------------------------------|
  E|-------------------------------|-------------------------------|




  G|------- ------- ------- -------|------- ------- ------- -------|
  D|-------------------------------|2-------2-------2-------2----/-|
  A|3-------3-------3----3--3H5----|-------------------------------|
  E|-------------------------------|-------------------------------|




    01:02
  G|------- ------- ------- -------|------- ------- ------- -------|
  D|7-------7-------7-------7------|-------------------------------|
  A|-------------------------------|8-------8-------8-------8------|
  E|-------------------------------|-------------------------------|
    Lift up      your       and  sing    me a    song    that    a 
                    hearts                                  was



  G|------- ------- ------- -------|------- ------- ------- -------|
  D|7-------7---------------7-\----|-----------------------------7-|
  A|-------------------------------|5-------5-------5-------5------|
  E|----------------5--------------|-------------------------------|
    hit     before          your    mother  was  born




  G|------- ------- ------- -------|------- ------- ------- -------|
  D|5-------5-------5-------5------|-------------------------------|
  A|-------------------------------|3-------3-------2-------2------|
  E|-------------------------------|-------------------------------|
    Though  was  born       a    long,   long    time       ago
         she



  G|------- ------- ------- -------|------- ------- ------- -------|
  D|--------7-------7-------7------|--------------------------7--6-|
  A|0----------------------------4-|5-------5-------5-------5------|
  E|-------------------------------|-------------------------------|
                 your       should
                    mother       know
                                                   (Your


  G|------- ------- ------- -------|------- ------- ------- -------|
  D|5-------5-------5-------5------|--------------------------2--5-|
  A|-----------------------------5-|3-------3-------3-------3------|
  E|-------------------------------|-------------------------------|
                 your       should
                    mother       know
    mother  should)                        (Aaaaaaaaaaaaaaaaaaaaaaa


  G|------- ------- ------- -------|------- ------- ------- -------|
  D|7-------7-------7-------7------|--------------------------7--6-|
  A|-----------------------------7-|5-------5-------5-------5------|
  E|-------------------------------|-------------------------------|
                 your       should
                    mother       know
    aaaaahhh)                                      (Your
   

  G|------- ------- ------- -------|------- ------- ------- -------|
  D|5-------5-------5-------5------|-------------------------------|
  A|-----------------------------5-|3-------3-------3-------5------|
  E|-------------------------------|-------------------------------|
                 your       should
                    mother       know
    mother  should)                        (Aaaaaaaaaaaaaaaaaaaaaaa



    01:31
  G|------- ------- ------- -------|------- -------|
  D|--------4-------6--------------|4-------6------|
  A|7-----------------------7------|---------------|
  E|-------------------------------|---------------|

    aaaaaaaahhh)


  G|------- ------- ------- -------|------- ------- ------- -------|
  D|7------------------------------|-------------------------------|
  A|------------------------7------|8------------------------------|
  E|-------------------------------|-------------------------------|




  G|------- ------- ------- -------|------- ------- ------- -------|
  D|-------------------------------|5-------5-------5-------5-\----|
  A|8-------8-------8--------------|-------------------------------|
  E|-------------------------------|-------------------------------|




  G|------- ------- ------- -------|------- ------- ------- -------|
  D|---------------------0--2------|2-------2----0--2----0--2-/----|
  A|3-------3-------3------------3-|-------------------------------|
  E|-------------------------------|-------------------------------|
                                    Sing it again



    01:46
  G|------- ------- ------- -------|------- ------- ------- -------|
  D|7-------7-------7-------7--\---|3-------3-------3-------3------|
  A|-------------------------------|-------------------------------|
  E|-------------------------------|-------------------------------|
    Da   daaa    da daaa    da   daaa    daaa    da daaa da daaa da



  G|------- ------- ------- -------|------- ------- ------- -------|
  D|2-------2-------2-------2------|---------------------2--3------|
  A|-------------------------------|5-------5-------5------------x-|
  E|-------------------------------|-------------------------------|
    da      da   daaa       daaa    daaa da daaa daaa



  G|------- ------- ------- -------|------- ------- ------- -------|
  D|5-------5-------5----3--2------|-------------------------------|
  A|-----------------------------5-|3-------3-------2-------2------|
  E|-------------------------------|-------------------------------|
    Though  was  born       a    long,   long    time    ago
         she    



  G|------- ------- ------- -------|------- ------- ------- -------|
  D|--------7-\--------------------|--------------------------7--6-|
  A|0---------------0-------4------|5-------5-------5-------5------|
  E|-------------------------------|-------------------------------|
                 your       should
                    mother       know
                                                   (Your


  G|------- ------- ------- -------|------- ------- ------- -------|
  D|5-------5-------5-------5------|-----------------------------5-|
  A|-----------------------------5-|3-------3-------3/5--5--7------|
  E|-------------------------------|-------------------------------|
                 your       should
                    mother       know
    mother  should)                        (Yeaaaaaaaaaaaaaaaaaaaaa


  G|------- ------- ------- -------|------- ------- ------- -------|
  D|7-------7------------7---------|----------------7-------6----x-|
  A|----------------7-------7----x-|5-------5----------------------|
  E|-------------------------------|-------------------------------|
                 your       should
                    mother       know
    aaaaahhh)                                      (Your


  G|------- ------- ------- -------|------- ------- ------- -------|
  D|5-------5---------------5------|------------------------2----5-|
  A|----------------5------------5-|3-------3------/3---5----------|
  E|-------------------------------|-------------------------------|
                 your       should
                    mother       know
    mother  should)                        (Yeaaaaaaaaaaaaaaaaaaaaaa


  G|------- ------- ------- -------|------- ------- ------- -------|
  D|7-------7---------------7------|----------------7---------7--6-|
  A|----------------7--------------|5-------5---------------5------|
  E|-------------------------------|-------------------------------|
                 your       should
                    mother       know
    aaaaahhh)                                      (Your


                                  (.
  G|------- ------- ------- -------|------- ------- ------- -------|
  D|5-------5---------------5------|-------------------------------|
  A|----------------5------------5-|3------------------------------|
  E|-------------------------------|-------------------------------|
                 your       should
                    mother       know
    mother  should)                        (Yeaaaaaaaahhhh)








        B  Bend
        R  Release
        /  slide up
        \  slide down
        H  hammer-on
        P  pull-off
        ~  vibrato
        +  harmonic
        x  Mute note
        . - play note like a dot in standard notation
        ^ - ties two notes together
        (.  Pause





            
            
Suggest correction
Creating personal tab
Creating personal tab
You can edit any tab online and save it as your Personal.

You can edit, replace or remove any tab part or add personal notes – all changes will be seen only by you.

Personal tabs can be accessed anytime from any device, even offline.
Learn more »
comments
print report bad tab
guest
You may want to rate the tab now too:
select rating
Wanna post a correction for this tab? Suggest correction