Oops, an error
Loading. Please wait.

I Thought About You bass

version 1
version 1

Whole song

3,059 views 3 this week
no commentswrite comment
1 2 3 4 5
2 more votes to show rating
add to favorites
×
Save as Personal and add changes to this tab that will be seen only by you. Learn more ›
×
You can save this tab as Personal to edit and correct it or add notes. All changes will be seen only by you. Learn more »
launch autoscroll
font size
0
reset
guitar tuner
edit
Autoscroll
slow
fast
+/-
esc
set tempo
stop
Author
Artist: The Beautiful Girls
Song  : I Thought About You

Tabbed By : bassersam
e-mail: rugbystar69@msn.com
Tuning: Standard

great easy song to play and no other tabs for it and this sounds pretty
correct to me
There some kind of distortion used throughout this song.

Main Riff
(play this for intro, verse and chorus)
G|----------------------------------------------------------------|
D|----------------------------------------------------------------|
A|--77p5h7----33p1h3----55p3h5----66-4h6p4------------------------|
E|-5---------1---------3---------4--4------6p4--------------------|

play this bit in the quiet verse after the cross singing bit with no guitar
and quiet chorus when guitar starts until full drums come back in
G|------------------------------------------------------------------|
D|------------------------------------------------------------------|
A|---7---------3--------5---------66-46p4---------------------------|
E|-5---------1--------3---------4---4-----6p4-----------------------|

Back to Main Riff when full drums come back in.
this is a great song by the beautiful girls fun song to play
please rate and comment.

| /  slide up
| \  slide down
| h  hammer-on
| p  pull-off
| ~  vibrato
| +  harmonic
| x  Mute note

            
            
Suggest correction
Creating personal tab
Creating personal tab
You can edit any tab online and save it as your Personal.

You can edit, replace or remove any tab part or add personal notes – all changes will be seen only by you.

Personal tabs can be accessed anytime from any device, even offline.
Learn more »
Give kudos to tab author, rate the tab!
1 2 3 4 5
comments
print report bad tab
guest
You may want to rate the tab now too:
select rating
Wanna post a correction for this tab? Suggest correction