Oops, an error
Loading. Please wait.

Music tab

11,922 views 9 this week
2 commentsread comments
1 2 3 4 5
x 4
add to favorites
×
Save as Personal and add changes to this tab that will be seen only by you. Learn more ›
×
You can save this tab as Personal to edit and correct it or add notes. All changes will be seen only by you. Learn more »
launch autoscroll
font size
0
reset
how to read this tab
guitar tuner
edit
Autoscroll
slow
fast
+/-
esc
set tempo
stop
Difficulty
The Beautiful Girls - Music

Standard Tuning

Transcribed by Michael

Legend:
2/4 - slide up
4\2 – slide down
o - repeat rhythm
| - end of riff

I have simplified this into a tab for one guitar only however the track is played by two 
Listen to the song to get the rhythm etc.


Intro:
e |-------------------------------|
B |---------3\1-------------------|
G |-----------------------1-------|
D |----1/3----------1--3----------| X8
A |-------------------------------|
E |-------------------------------|

Verse:
      F            Bb
e |---1------------1---------------|o
B |---1------------3---------------|o
G |---2------------3---------------|o
D |---3------------3---------------|o
A |---3------------1---------------|o
E |---1----------------------------|o


Chorus:
      F            Bb           @ end of chorus
e |---1------------1------o    --1-----------|
B |---1------------3------o    --1-----------|
G |---2------------3------o    --2-----------|
D |---3------------3------o    --3---8\------|
A |---3------------1------o    --3---8\------|
E |---1-------------------o    --1---6\------|

Repeat Intro/Verse/Chorus

Bridge:
      C            Bb            Em  F  Bb
e |----------------1------o    ------1---1---|
B |---1------------3------o    ------1---3---|
G |----------------3------o    ------2---3---|
D |---2------------3------o    --2---3---3---|
A |---3------------1------o    --2---3---1---|
E |-----------------------o    ------1-------|


Chorus/Outro:
      F            Bb
e |---1------------1------o    --1--------1--|
B |---1------------3------o    --1--------1--|
G |---2------------3------o    --2--------2--|
D |---3------------3------o    --3---8\---3--|
A |---3------------1------o    --3---8\---3--|
E |---1------------x------o    --1---6\---1--|


Get amongst it.

m.kaye@student.qut.edu.au

            
            
Suggest correction
Creating personal tab
Creating personal tab
You can edit any tab online and save it as your Personal.

You can edit, replace or remove any tab part or add personal notes – all changes will be seen only by you.

Personal tabs can be accessed anytime from any device, even offline.
Learn more »
comments
print report bad tab
2 comments total.
+4 reply
skittlepunk 146 May 06, 2008 03:41 PM

i think the intro is 3 on the G string not 1 at the end. Other than that its really good.
e |-------------------------------|
B |---------3\1-------------------|
G |-----------------------3-------|
D |----1/3----------1--3----------| X8
A |-------------------------------|
E |-------------------------------|

0 reply
WoodyWoodsta 10 Mar 11, 2010 06:26 AM

I would have played 4 to 5 on the A string for the second bit

e |-------------------------------|
B |---------3\1-------------------|
G |-----------------------3-------|
D |----1/3------------------------| X8
A |-----------------4--5----------|
E |-------------------------------|

guest
Wanna post a correction for this tab? Suggest correction