Oops, an error
Loading. Please wait.

Water tab

version 1
version 1

Whole song

11,790 views 3 this week
3 commentsread comments
1 2 3 4 5
x 5
add to favorites
×
Save as Personal and add changes to this tab that will be seen only by you. Learn more ›
×
You can save this tab as Personal to edit and correct it or add notes. All changes will be seen only by you. Learn more »
launch autoscroll
font size
0
reset
how to read this tab
guitar tuner
edit
Autoscroll
slow
fast
+/-
esc
set tempo
stop
Song; Water
Artist: The Beautiful Girls
Tabbed By; Ryan Anderson
Tuning:Eb Ab Db Gb Bb eb

Intro
       G#                        B
eb|--------------------------------------------------------------------------|
Bb|--------------------------------------------------------------------------|
Gb|----------5h6-------------------------------------------------------------|
Db|-------6---------6-----------------4h6------------------------------------|
Ab|-----6---------------6-----2-4s6---------6-4-------2—4h6---2--------2-----|
Eb|--4------------------------------------------2-2---------------444-4------|

eb|-------------------------------------------------------------------------|
Bb|-------------------------------------------------------------------------|
Gb|----------5h6------------------------------------------------------------|
Db|-------6---------6-----------------4h6-----------------------------------|
Ab|---6---------------6-----2-4s6---------6-4-------2—4h6---2---------------|
Eb|-4------------------------------------------2-2------------4-------------|

eb|--------4---4--4--4--4-4----------2--2--2--2--2------0--0--0--0--0-------|
Bb|--------4---4--4—-4--4-4----------2--2--2--2--2------0--0--0--0--0-------|
Gb|--------5---5--5—-5--5-5----------3--3--3--3--3------1--1--1--1--1-------|
Db|--------6---6--6--6--6-6----------4--4--4--4--4------2--2--2--2--2-------|
Ab|--------6---6--6--6--6-6----------4--4--4--4--4------2--2--2--2--2-------|
Eb|---4-4--4---4--4—-4--4-4----3-2-2-2--2--2--2--2--1-0-0--0--0--0--0-------|

eb|-------------------------------------------------------------------------|
Bb|-------------------------------------------------------------------------|
Gb|-------------------------------------------------------------------------|
Db|-------------------------------------------------------------------------|
Ab|-0-2s4-4s2-------2h3h4---------------------------------------------------|
Eb|-----------2h3h4---------------------------------------------------------|


choru6
eb|---4---------2---------0---4-4-4-4-4-4-4-4--------------------------------|
Bb|---4---------2---------0---6-6-6-6-6-6-6-6--------------------------------|
Gb|---3---------3---------1---6-6-6-6-6-6-6-6--------------------------------|
Db|---6---------4---------2---6-6-6-6-6-6-6-6--------------------------------|
Ab|---6---------4---------2---4-4-4-4-4-4-4-4--------------------------------|
Eb|-4-4-4-3-2-2-2-2-1-0-0-0-0------------------------------------------------|

Thats the basic version not 100% right but good for just playing at home solo is easy 
i couldn't be stuffed writing it out enjoy. Also probaly best if you use power chords 
x46664 use x466xx

            
            
Suggest correction
Creating personal tab
Creating personal tab
You can edit any tab online and save it as your Personal.

You can edit, replace or remove any tab part or add personal notes – all changes will be seen only by you.

Personal tabs can be accessed anytime from any device, even offline.
Learn more »
comments
print report bad tab
3 comments total.
+1 reply
PICKS r4 DICKS 133 Aug 31, 2007 12:33 PM

heres a few minor fixes to the first part of the intro. i still gave your tab a 5 though.

Intro
G# B
eb|--------------------------------------------------------------------------|
Bb|--------------------------------------------------------------------------|
Gb|----------5h6p5-----------------------------------------------------------|
Db|-------6---------6---4--------------4h6p4---------------------------------|
Ab|-----6----------------------2-4s6---------6-4-------2—4h6p4-2----------2--|
Eb|--4--------------------------------------------2-2-------------2--4-444---|

+1 reply
PICKS r4 DICKS 133 Aug 31, 2007 12:34 PM

and make the 4s6 a 4h6. it sounds better.

0 reply
Fatal Flaw 10 Apr 13, 2009 09:06 PM

I found this tab highly informative.

Even tyhough i cant be bothered to change the tuning on my guitar, it still sounds close enough for me.

Nice corrections PICKS r4 DICKS, they sound a lot better than what he had.

guest
Wanna post a correction for this tab? Suggest correction