Oops, an error
Loading. Please wait.

In The Dark tab

version 2
version 2

Whole song

Interactive

194 views 1 this week
no commentswrite comment
1 2 3 4 5
2 more votes to show rating
add to favorites
×
Save as Personal and add changes to this tab that will be seen only by you. Learn more ›
×
You can save this tab as Personal to edit and correct it or add notes. All changes will be seen only by you. Learn more »
launch autoscroll
font size
0
reset
how to read this tab
guitar tuner
edit
Autoscroll
slow
fast
+/-
esc
set tempo
stop
-------------------------------------------------------------------------------
                   In The Dark - The Birthday Massacre
-------------------------------------------------------------------------------

Special Thanks go to Justin Coles' cover of this song on YouTube and majevshadowsong's original Drop C tab 
to make this tab possible.

Tuning: Drop D (DADGBE)
pm = palm mute



Intro and Outro
_______________

|-----------------------------------------------------|
|-----------------------------------------------------|
|-----------------------------------------------------|
|--2----0--3--0--2----0--3--0--2----0--3--0--2--3--1--|
|--2----0--3--0--2----0--3--0--2----0--3--0--2--3--1--|
|--2----0--3--0--2----0--3--0--2----0--3--0--2--3--1--|


|-----------------------------------------------------|
|-----------------------------------------------------|
|-----------------------------------------------------|
|--2----0--3--0--2----0--3--0--2----0--3--0--2--2--1--|
|--2----0--3--0--2----0--3--0--2----0--3--0--2--2--1--|
|--2----0--3--0--2----0--3--0--2----0--3--0--2--2--1--|


|-----------------------------------------------------|
|-----------------------------------------------------|
|-----------------------------------------------------|
|--2----0--3--0--2----0--3--0--2----0--3--0--2--5--1--|
|--2----0--3--0--2----0--3--0--2----0--3--0--2--5--1--|
|--2----0--3--0--2----0--3--0--2----0--3--0--2--5--1--|


|-----------------------------------------------------|
|-----------------------------------------------------|
|-----------------------------------------------------|
|--2----0--3--0--2----0--3--0--2----0--3--0--2--2--1--|
|--2----0--3--0--2----0--3--0--2----0--3--0--2--2--1--|
|--2----0--3--0--2----0--3--0--2----0--3--0--2--2--1--|


Verse
_____

|--------------------------------------------------------------------------|
|--------------------------------------------------------------------------|
|--------------------------------------------------------------------------|
|--2--2--2--2-2-----2--2--2--2-2-----2--2--2--2-2-----2--2--2--2-5--5--5---|
|--2--2--2--2-2-----2--2--2--2-2-----2--2--2--2-2-----2--2--2--2-5--5--5---|
|--2--2--2--2-2-----2--2--2--2-2-----2--2--2--2-2-----2--2--2--2-5--5--5---|
pm .  .  .  . .     .  .  .  . .     .  .  .  . .     .  .  .  . .  .  .

|--------------------------------------------------------------------------|
|--------------------------------------------------------------------------|
|--------------------------------------------------------------------------|
|--0--0--0--0-0-----0--0--0--0-0-----0--0--0--0-0-----0--0--0--0-5--5--0---|
|--0--0--0--0-0-----0--0--0--0-0-----0--0--0--0-0-----0--0--0--0-5--5--0---|
|--0--0--0--0-0-----0--0--0--0-0-----0--0--0--0-0-----0--0--0--0-5--5--0---|   x2
pm .  .  .  . .     .  .  .  . .     .  .  .  . .     .  .  .  . .  .  .


Chorus
______
(Play each chord about 12 times)


|---------------------------------------------------------------------|
|---------------------------------------------------------------------|
|---------------------------------------------------------------------|
|--2----------------10---------------0----------------7---------------|
|--2----------------10---------------0----------------7---------------|
|--2----------------10---------------0----------------7---------------|


|---------------------------------------------------------------------|
|---------------------------------------------------------------------|
|---------------------------------------------------------------------|
|--2----------------10---------------12---------------7---------------|
|--2----------------10---------------12---------------7---------------|
|--2----------------10---------------12---------------7---------------|



-Intro and Outro

-Verse

-Chorus x2


Bridge
______

(Play each chord about 12 times)
|-------------------------------------------------|
|-------------------------------------------------|
|-------------------------------------------------|
|-10-----------------------5----------------------|
|-10-----------------------5----------------------|
|-10-----------------------5----------------------|

|-------------------------------------------------|
|-------------------------------------------------|
|-------------------------------------------------|
|-0------------------------7----------------------|
|-0------------------------7----------------------|
|-0------------------------7----------------------|

|-------------------------------------------------|
|-------------------------------------------------|
|-------------------------------------------------|
|-10-----------------------5----------------------|
|-10-----------------------5----------------------|
|-10-----------------------5----------------------|

(Play the open chord below about 24 times)
|-------------------------------------------------|
|-------------------------------------------------|
|-------------------------------------------------|
|-0-----------------------------------------------|
|-0-----------------------------------------------|
|-0-----------------------------------------------|

|-------------------------------------------------|
|-------------------------------------------------|
|-------------------------------------------------|
|-10-----------------------5----------------------|
|-10-----------------------5----------------------|
|-10-----------------------5----------------------|

(For this phrase below, play the 7th and 2nd fret chords about 6 times each)
|-------------------------------------------------|
|-------------------------------------------------|
|-------------------------------------------------|
|-0------------------------7-----------2----------|
|-0------------------------7-----------2----------|
|-0------------------------7-----------2----------|

|-------------------------------------------------|
|-------------------------------------------------|
|-------------------------------------------------|
|-10-----------------------2----------------------|
|-10-----------------------2----------------------|
|-10-----------------------2----------------------|

|-------------------------------------------------|
|-------------------------------------------------|
|-------------------------------------------------|
|-0-----------------------------------------------|
|-0-----------------------------------------------|
|-0-----------------------------------------------|


- Music Box bridge -

and then...

-Chorus

-Intro and Outro

...and then you're a rock star!

            
            
Suggest correction
Creating personal tab
Creating personal tab
You can edit any tab online and save it as your Personal.

You can edit, replace or remove any tab part or add personal notes – all changes will be seen only by you.

Personal tabs can be accessed anytime from any device, even offline.
Learn more »
Give kudos to tab author, rate the tab!
1 2 3 4 5
comments
print report bad tab
guest
You may want to rate the tab now too:
select rating
Wanna post a correction for this tab? Suggest correction